Artists by letter: A B C D E F G H I J K L M N O P Q R S T U V W X Y Z 0-9

 
Sombrero
Pista 1

E||-------10--------10--------10-------|
B||------------------------------------|
G||--12--------11--------10--------9---|
D||------------------------------------|
A||------------------------------------|
E||------------------------------------|


------------------------------------|--5---------6------5-----------5---|
------------------------------------|------5--------------------5-------|
-------10--------10--------10-------|---------6------6------6-----------|
--12--------11--------10--------9---|-----------------------------------|
------------------------------------|-----------------------------------|
------------------------------------|-----------------------------------|


----------5---------5--|-------10--------10--------10-------|
------6-------6-----7--|------------------------------------|
--7--------------7--5--|--12--------11--------10--------9---|
-----------------------|------------------------------------|
-----------------------|------------------------------------|
-----------------------|------------------------------------|


------------------------------------|--5---------6------5-----------5---|
------------------------------------|------5--------------------5-------|
-------10--------10--------10-------|---------6------6------6-----------|
--12--------11--------10--------9---|-----------------------------------|
------------------------------------|-----------------------------------|
------------------------------------|-----------------------------------|


----------5---------|--5--------6-----5--------5--|
------6-------6-----|-----6-----------------6-----|
--7--------------7--|--------7-----7-----7--------|
--------------------|-----------------------------|
--------------------|-----------------------------|
--------------------|-----------------------------|


-------10--------10--------10-------|
------------------------------------|
--12--------11--------10--------9---|
------------------------------------|
------------------------------------|
------------------------------------|


----------5-------------------5-----------|----------5-----------5---||
------6-------6-----------5-------5-------|------6-------6-------7---||
--7---------------7---6---------------6---|--7---------------7---5---||
------------------------------------------|--------------------------||
------------------------------------------|--------------------------||
------------------------------------------|--------------------------||
 
 
Chico Trujillo - Sombrero :: indexed at Ultimate Guitar.
Sombrero tabs @ 911Tabs
People who played Chico Trujillo - Sombrero also played these songs by Chico Trujillo:
Loca Tab, La Escoba Chords, Y Si No Fuera Chords, Sin Excusas Chords, La Cosecha De Mujeres Chords, Sombrero Chords

Quick tip, so you can enjoy Sombrero even more:

If you don't really know how to deal with "Absus4" chord and his equally confusing brothers, just put the mouse cursor over them and you will be shown a helpful chord diagram.

Show us your talent, perform Sombrero!

Here you can post a video or audio performance. Tell me more ...
Where can we find your performance? Tell me more ...
Your comment:
Please, log in to post your performance.