Artists by letter: A B C D E F G H I J K L M N O P Q R S T U V W X Y Z 0-9

 

Sexy Little Thing
Riff 1
E|---------------------------------------------|
B|---------------------------------------------|
G|--7-7-5h7p5-4-2--2-0----5-5-4h5p4-2-0-0-0----|
D|--0-0-0-----0-0--0-0----0-0-0-----0-0-0-0----|
A|---------------------------------------------|
E|---------------------------------------------|

Riff 2
E|-------------------------3--|
B|-----3---3-3--3-3-3-3----3--|
G|-----2---2-2--2-2-2-2----0--|
D|-----0---0-0--0-0-0-0----2--|
A|-0-3---3---------------x-3--|
E|----------------------------|
              (...PM...)

Riff 3
E|---------------------------------------------|
B|---------------------------------------------|
G|--11-11-9h11p9-7-5--5-5----9-9-7h9p7-5-4-4-4-|
D|--0--0--0------0-0--0-0----0-0-0-----0-0-0-0-|
A|---------------------------------------------|
E|---------------------------------------------|


Riff 4
E|----0~~----3~~~--------|
B|----0~~----0~~~--3~~~--|
G|----1~~----0~~~--2~~~--|
D|----2~~----0~~~--0~~~--|
A|--2------2-------------|
E|--0------3-------------|

E|------------------------------------------------------------------------|
B|--1--1--1--1--3--1--3~~--1--1--0--------------1--1--0-------------------|
G|--0--0--0--0--2--0--2~~--0--0--0-0--2--0h2~~--0--0--0--0--2--0h2~-------|
D|---------------------------------0--2--0h2~~-----------0--2--0h2~-0~~~--|
A|------------------------------------------------------------------------|
E|------------------------------------------------------------------------|

Solo

E|-----------------------------------------------|
B|-----------------------------------------------|
G|--10-----------------10h12-10h12~--12p10-------|
D|-----12~-10----10-12---------------------12p10-|
A|------------12---------------------------------|
E|-----------------------------------------------|

E|--10--x---------------10-------10---------------15b17-13-------|
B|--10--x-------------10---13b15----13-15~~-15-------------15p13-|
G|------x-----10-12b14-------------------------14----------------|
D|------12-12----------------------------------------------------|
A|---------------------------------------------------------------|
E|---------------------------------------------------------------|

E|---------------------------------------------|
B|------13-------------------------------------|
G|12\14----14/12p10----10h12--12p10------------|
D|------------------12--------------12p10------|
A|---------------------------------------------|
E|---------------------------------------------|

-13p10-----------------------------------------------------|
-------13p10--13p10----------------------------------------|
--------------------12p10--12p10---------------------------|
---------------------------------12p10--12p10--------------|
----------------------------------------------12p10/8-10---|
---------------------------------------------------------10|


Riff 5
E|----------10-------10-10-------10-10-------10--------------|
B|--------10---------10-10-------10-10-------10-12~~~~~~~~---|
G|--12b14------12b14-------12b14-------12b14----12b13r12~~---|
D|-----------------------------------------------------------|
A|-----------------------------------------------------------|
E|-----------------------------------------------------------|

Riff 6
E|---------------------------|
B|--7--7-8-7-x-x-7-7--8-8-8--|
G|--------------------7-7-7--|
D|--7--7-7-7-x-x-7-7--9-9-9--|
A|--5--5-5-5-x-x-5-5---------|
E|---------------------------|

Outro Solo (w/ Wah)

E|-----------------------------3-----15----15----15-------------3--|
B|--15~-15~-15~-17b19r18b19~---3--------18----18----18-15~-15~--3--|
G|-----------------------------0--------------------------------0--|
D|-----------------------------2--------------------------------2--|
A|-----------------------------3--------------------------------3--|
E|-----------------------------------------------------------------|

E|-----------------------------15----15------------|
B|--15~-15~-15~-17b19r18b19~------18----18---20b22-|
G|-------------------------------------------------|
D|-------------------------------------------------|
A|-------------------------------------------------|
E|-------------------------------------------------|

-------------------------------------------------|
20--18----18--------15-17-15-17b18r17--15-15~~/--|
-------19----19~~--------------------------------|
-------------------------------------------------|
-------------------------------------------------|
-------------------------------------------------|

Intro:Riff 1 x4
Verse: Riff 1 x4
Bridge: Riff 2 x2
Verse: Riff 1 x4
Chorus: Riff 2 x4
Verse: Riff 1 x2, Riff 3 x1, Riff 1 x1
Chorus: RIff 2 x4
Bridge: Riff 4 x1
Solo
Bridge: Riff 1 x1, Riff 3 x2, Riff 1 x1
Stop
Chorus: Riff 2 x8
Outro: Riff 5 x1, Riff 2 x1, Riff 5 x1, Riff 2 x1, Riff 6 x4, Riff 1 x1, Riff 3 x1, Riff
x1
Then this little bit at the end of Riff 1
G|-4-5-4-5-4-5-4-5--|
D|-0-0-0-0-0-0-0-0--|
Then outro solo.
 
 
Chickenfoot - Sexy Little Thing :: indexed at Ultimate Guitar.
Sexy Little Thing tabs @ 911Tabs
People who played Chickenfoot - Sexy Little Thing also played these songs by Chickenfoot:
My Kinda Girl Tab, Learning To Fall Tab, Sexy Little Thing Tab, Something Going Wrong Tab, Sexy Little Thing Tab, Oh Yeah Tab

Quick tip, so you can enjoy Sexy Little Thing even more:

YourChords.com Guitar Chords and Tabs Archive is currently indexing over 240'000 songs from 21'000+ different artists. And new chords just keep on coming in, so you will surely never run out of them.

Show us your talent, perform Sexy Little Thing!

Here you can post a video or audio performance. Tell me more ...
Where can we find your performance? Tell me more ...
Your comment:
Please, log in to post your performance.