Artists by letter: A B C D E F G H I J K L M N O P Q R S T U V W X Y Z 0-9

 
Last Temptation
Chickenfoot - 'Last Temptation'
From Chickenfoot III
Tuning: Eb
Tabbed by jjhand

Please rate this so others will check this song out.

Intro - play through 4x (last time stay on Bb5)

Bb5                   Bb+5
eb|-------------------------|-------------------------|
Bb|-------------------------|-------------------------|
Gb|-4--4--4--4--4--4--4--4--|-4--4--4--4--4--4--4--4--|
Db|-4--4--4--4--4--4--4--5--|-5--5--5--5--5--5--5--5--|
Ab|-2--2--2--2--2--2--2--2--|-2--2--2--2--2--2--2--2--|
Eb|-------------------------|-------------------------|



Lead Guitar Licks for intro (0:03)
|---------------------------|--------------------|-----17TP----17TP-------|
|----15-17-17pb18----17-15~-|------------15------|-/19------19------17-15-|
|-16--------------16--------|-16-14-16~----------|------------------------|
|---------------------------|--------------------|------------------------|
|---------------------------|--------------------|------------------------|
|---------------------------|--------------------|------------------------|

|-------------|----------------------|------------|-19~~~-------|
|-------------|----10----------------|------------|-------------|
|-16~---------|-/9----9--7--9--7-----|------------|-------------|
|-------------|------------------9p7-|-9~~\-------|-------------|
|-------------|----------------------|------------|-------------|
|-------------|----------------------|------------|-------------|



Verse Riff 1 - note where mutes are

|--------------------|------------3------|------------------|---------3-----|
|--------------------|------------3------|------------------|---------3-----|
|--------------------|------------0------|------------------|---------0-----|
|--------------------|-2----------2------|------------------|-2-------2-----|
|--------------------|-2-----------------|------------------|-2-------------|
|-0---3---5---3~--0--|-0--0PM-0PM--------|-0---3---5---3~---|-0--0-0--------|

|--------------------|------------3------|------------------|---------3-----|
|--------------------|------------3------|------------------|---------3-----|
|--------------------|------------0------|------------------|---------0-----|
|--------------------|-2----------2------|------------------|-2-------2-----|
|--------------------|-2-----------------|------------------|-2-------------|
|-0---3---5--5b6~-3--|-0--0---0----------|-0---3---5---3~---|-0--0-0--------|



Verse Riff 2 - note a Chord shown above is muted 6th string rhythm part

Eb                Gb                F                  E
|-0---0---0---0---|-0---0---0---0---|-0-0--------------|-------0-------------|
|-0---5-3-5---5-3-|-5---5-3-5-3-5-3-|-5-5--------------|----3----------------|
|-----------------|-----------------|-----3p2p0--0---0-|-/4___---\2p0--------|
|-----------------|-----------------|----------2---2---|-------------2--0tr2-|
|-----------------|-----------------|------------------|---------------------|
|-----------------|-----------------|------------------|---------------------|

Eb                Gb 
|---------0-3qb-0--|-0---0--0--0-0--|-----------------|-----------------|
|---------0-----0--|---3---/5--5-0--|-----------------|-----------------|
|------------------|----------------|-----0-3---3-----|-------2---2-----|
|-2-0p2------------|----------------|---2---------2---|---0-4-------0---|
|------------------|----------------|-3-----------3---|-2-----------2---|
|------------------|----------------|-----------------|-----------------|

|--------------
|----------0---
|--------0-----
|------0-------
|-2--2---------
|--------------



Chorus - play 2x (different endings)

Ebm     Gb           Db        
|-----------------3--|-2--2--2----0--0--0-----|-----------------3--|
|-----------------3--|-3--3--3----2--2--2--0--|-----------------3--|
|-0----0--0----0--0--|-2--2--2----2--2--2--0--|-0----0--0----0--0--|
|-2----2--0----0--0--|-0--0--0----2--2--2--0--|-2----2--0----0--0--|
|-2----2--2----2-----|-0--0--0----0--0--0-----|-2----2--2----2-----|
|-0----0--3----3-----|------------------------|-0----0--3----3-----|

1st ending                        2nd ending - 1st bar is 2 beats
|-2--2--2--------------         |-2--2--2-----|----------5-|-(5)-----
|-3--3--3--------------         |-3--3--3-----|----------3-|-(3)-----
|-2--2--2----2---------         |-2--2--2--2--|-2----------|---------
|-0--0--0----2---------         |-0--0--0--2--|-2------4---|-(4)-----
|-0--0--0----0----0----         |-0--0--0--0--|-0----------|---------
|---------------3---3--         |-------------|------------|---------





Verse 2 - Similar to verse before

Play Chorus Again





Bridge (2:03) - with some tremelo, played 2x

|--------------|--------------|--------------|--------------|
|--------------|--------------|--------------|--------------|
|-------3------|-------3------|-------2------|-------2------|
|---2------(2)-|---2------(2)-|---0------(0)-|---0------(0)-|
|-3---3--------|-3---3--------|-2---2--------|-2---2--------|
|--------------|--------------|--------------|--------------|

Notes in () are 2nd time only



Solo (Part 1), with lead-in notes

|-10----10----10----10~~--10--------|-10---------10---------------10-----10-10|
|----13----13----13---------10-13b15|---10-13b15---10-13b15--13b15--13b15-----|
|-----------------------------------|-----------------------------------------|
|-----------------------------------|-----------------------------------------|
|-----------------------------------|-----------------------------------------|
|-----------------------------------|-----------------------------------------|

|------10-----10-10-13-10h13p10--13-10---|-10-------------10-------------------|
|-13b15--13b15-----------------10-----13-|---13-10----------13-10--10--10--10--|
|----------------------------------------|--------12-12b14-------13--13--13--13|
|----------------------------------------|-------------------------------------|
|----------------------------------------|-------------------------------------|
|----------------------------------------|-------------------------------------|

|---------10-13------10--15b17-15~-|-10-----------------------------------|
|-10--10-------13b15---13----------|---13-10-----13-10--------------------|
|---13-----------------------------|--------12-10-----12-10--12--10--10---|
|----------------------------------|-----------------------12--12------12-|
|----------------------------------|--------------------------------------|
|----------------------------------|--------------------------------------|

|------------------------------|--------------10~~----|
|---10----10----10--13p10------|----------------------|
|-13----13----13---------12p10-|-12--10--12p10--------|
|------------------------------|---12-----------------|
|------------------------------|----------------------|
|------------------------------|----------------------|

** Rhythm Guitar for Solo Part 1, played 4x
|-----------------------|-----------------------|
|-----------------------|-----------------------|
|-----------------------|-----------------------|
|-----------------------|-----------------------|
|-5--3--5--3--5---------|--------------3--5--3--|
 
 
Chickenfoot - Last Temptation :: indexed at Ultimate Guitar.
Last Temptation tabs @ 911Tabs
People who played Chickenfoot - Last Temptation also played these songs by Chickenfoot:
My Kinda Girl Tab, Learning To Fall Tab, Sexy Little Thing Tab, Something Going Wrong Tab, Sexy Little Thing Tab, Oh Yeah Tab

Quick tip, so you can enjoy Last Temptation even more:

YourChords.com Guitar Chords and Tabs Archive is currently indexing over 240'000 songs from 21'000+ different artists. And new chords just keep on coming in, so you will surely never run out of them.

Show us your talent, perform Last Temptation!

Here you can post a video or audio performance. Tell me more ...
Where can we find your performance? Tell me more ...
Your comment:
Please, log in to post your performance.