Artists by letter: A B C D E F G H I J K L M N O P Q R S T U V W X Y Z 0-9

 
Come Closer
The song is in half step down tuning (same as every other song on the album).

Key:
~ = Ring out
b = Bend
r = Release Bend
h = Hammer on
p = Pull off
\ = Slide down
/ = Slide up
[x] = Optional note

Intro/Verse - 11 times
Eb|--8~~~~---------10~~~----|
Bb|--10~~~---------8~~~~----|
Gb|--9~~~~---------7~~~~----|
Db|--7~~~~---------7~~~~----|
Ab|-------------------------|
Eb|-------------------------|

Then play this once before chorus
Eb|--8~~~~--7------10~~~----|
Bb|--10~~~-----10--8~~~~----|
Gb|--9~~~~---------7~~~~----|
Db|--7~~~~---------7~~~~----|
Ab|-------------------------|
Eb|-------------------------|

Chorus Lead Riff - Played twice
Eb|-----------------------------------------------------------------------|
Bb|-----------------------------------------------------------------------|
Gb|--9h10p9\7/9~~/14~~--9h10p9~\7~~~/12~~--9h10p9\7/9~~/14--9h10p9~\7~~~--|
Db|-----------------------------------------------------------------------|
Ab|-----------------------------------------------------------------------|
Eb|-----------------------------------------------------------------------|

Verse - 3 times
Eb|--8~~~~---------10~~~----|
Bb|--10~~~---------8~~~~----|
Gb|--9~~~~---------7~~~~----|
Db|--7~~~~---------7~~~~----|
Ab|-------------------------|
Eb|-------------------------|

This once before chorus again
Eb|--8~~~~--7------10~~~----|
Bb|--10~~~-----10--8~~~~----|
Gb|--9~~~~---------7~~~~----|
Db|--7~~~~---------7~~~~----|
Ab|-------------------------|
Eb|-------------------------|

Chorus Lead Riff - Played twice
Eb|-----------------------------------------------------------------------|
Bb|-----------------------------------------------------------------------|
Gb|--9h10p9\7/9~~/14~~--9h10p9~\7~~~/12~~--9h10p9\7/9~~/14--9h10p9~\7~~~--|
Db|-----------------------------------------------------------------------|
Ab|-----------------------------------------------------------------------|
Eb|-----------------------------------------------------------------------|

Bridge - I should explain that I've put these 'optional' chords in here just to show you 
don't necessarily have to just play the chord once, go nuts!

Eb|-------------------------------------------------[0]-------------------------------------------|
Bb|-------------------------------------------------[0]-------------------------------------------|
Gb|--5~~--[5]~-[5]----------------------------------[1]---------------------7~~-[7]~-[7]--2~~~~~--|
Db|--5~~--[5]~-[5]--5~~-[5]~-[5]--7~~-[7]~-[7]--2~~-[2]~-[2]--3~~-[3]~-[3]--7~~-[7]~-[7]--2~~~~~--|
Ab|--3~~--[3]~-[3]--5~~-[5]~-[5]--7~~-[7]~-[7]--2~~-[2]~-[2]--3~~-[3]~-[3]--5~~-[5]~-[5]--0~~~~~--|
Eb|-----------------3~~-[3]~-[3]--5~~-[5]~-[5]--0~~-[0]~-[0]--1~~-[1]~-[1]------------------------|

Solo - With Octave Pedal

Eb|-------------------------------------------------------------------------------------|
Bb|-------------------------------------------------------------------------------------|
Gb|-----9-12----9-12----9-12----9-12----9-12-------12------12------12------12------12---|
Db|--10------10------10------10------10-------9-12----9-12----9-12----9-12----9-12------|
Ab|-------------------------------------------------------------------------------------|
Eb|-------------------------------------------------------------------------------------|

Eb|-------------------------------------------------------------------------------------|
Bb|-------10------10------10------10------10-------12------12------12------12------12---|
Gb|-----9-------9-------9-------9-------9-----9-12----9-12----9-12----9-12----9-12------|
Db|--10------10------10------10------10-------------------------------------------------|
Ab|-------------------------------------------------------------------------------------|
Eb|-------------------------------------------------------------------------------------|

Eb|--------8-------8-------8-------8-------8----------10-------10-------10-------10-------10--|
Bb|-----10------10------10------10------10---10----10-------10-------10-------10-------10-----|
Gb|--10------10------10------10------10---------10-------10-------10-------10-------10--------|
Db|-------------------------------------------------------------------------------------------|
Ab|-------------------------------------------------------------------------------------------|
Eb|-------------------------------------------------------------------------------------------|

Eb|--8b10-8~-5-------------------------------------------------|
Bb|------------8p5-------------------8-----------------8b10~~--|
Gb|----------------7p5---5-7p5--7b9~~---9r7p5-7p5-7p5~---------|
Db|--------------------7---------------------------------------|
Ab|------------------------------------------------------------|
Eb|------------------------------------------------------------|

Bridge - 2 times
Eb|-------------------------------------------------[0]-------------------------------------------|
Bb|-------------------------------------------------[0]-------------------------------------------|
Gb|--5~~--[5]~-[5]----------------------------------[1]---------------------7~~-[7]~-[7]--2~~~~~--|
Db|--5~~--[5]~-[5]--5~~-[5]~-[5]--7~~-[7]~-[7]--2~~-[2]~-[2]--3~~-[3]~-[3]--7~~-[7]~-[7]--2~~~~~--|
Ab|--3~~--[3]~-[3]--5~~-[5]~-[5]--7~~-[7]~-[7]--2~~-[2]~-[2]--3~~-[3]~-[3]--5~~-[5]~-[5]--0~~~~~--|
Eb|-----------------3~~-[3]~-[3]--5~~-[5]~-[5]--0~~-[0]~-[0]--1~~-[1]~-[1]------------------------|

Eb|--------------|
Bb|--------------|
Gb|--7p5---------|
Db|------7p5h7~~-|
Ab|--------------|
Eb|--------------|

Verse Riff 4 times
Eb|--8~~~~---------10~~~----|
Bb|--10~~~---------8~~~~----|
Gb|--9~~~~---------7~~~~----|
Db|--7~~~~---------7~~~~----|
Ab|-------------------------|
Eb|-------------------------|

Chorus Lead Riff - 4 times to end of song.
Eb|-----------------------------------------------------------------------|
Bb|-----------------------------------------------------------------------|
Gb|--9h10p9\7/9~~/14~~--9h10p9~\7~~~/12~~--9h10p9\7/9~~/14--9h10p9~\7~~~--|
Db|-----------------------------------------------------------------------|
Ab|-----------------------------------------------------------------------|
Eb|-----------------------------------------------------------------------|

That's about it, enjoy.
 
 
Chickenfoot - Come Closer :: indexed at Ultimate Guitar.
Come Closer tabs @ 911Tabs
People who played Chickenfoot - Come Closer also played these songs by Chickenfoot:
My Kinda Girl Tab, Learning To Fall Tab, Sexy Little Thing Tab, Something Going Wrong Tab, Sexy Little Thing Tab, Oh Yeah Tab

Quick tip, so you can enjoy Come Closer even more:

After the registration (which takes just 10 seconds, remember?) you will be able to use your profile - your very own piece of YourChords.com.

Show us your talent, perform Come Closer!

Here you can post a video or audio performance. Tell me more ...
Where can we find your performance? Tell me more ...
Your comment:
Please, log in to post your performance.