Artists by letter: A B C D E F G H I J K L M N O P Q R S T U V W X Y Z 0-9

 
En Tu Cruz Me Clavaste
Chenoa: En tu cruz me clavaste
------------------------------
                                                              
E|------0-0------------0-0------------0-0-----------------------|
B|----------4-4-2----------4-4-2----------4-4-2------4-4-2-2-1--|
G|--1-1------------1-1------------2-2------------1-1------------|
D|--------------------------------------------------------------|
A|--------------------------------------------------------------|
E|--------------------------------------------------------------|
                                                              
E|------0-0----------------------------0-0-------------0--------|
B|----------4-4-2--------------------------4-4-2----4-----4--2--|
G|--1-1--------------1--1--2--1----1-1--------------------------|
D|--------------------------------------------------------------|
A|--------------------------------------------------------------|
E|--------------------------------------------------------------|
                                                              
E|------0-0-------------0-----------------------------0--------|
B|----------4-4-2----4-----4--2-------4-4-2-2-1----4-----4--2--|
G|--2-2---------------------------1-1--------------------------|
D|-------------------------------------------------------------|
A|-------------------------------------------------------------|
E|-------------------------------------------------------------|

C#m
Si,volverá a mentir,lo sé
                   B
volvera a engañarme
A
y yo caeré en su trampa
     G#
dulce estafa que me encanta.

SI, volvera A disimular
otra historia
otro olor en su camisa
que disfraza y falsifica.

F#m     C#
Y lo sé,no puedo mas,lo se
                 A
pero a sus besos y a su cuerpo
      B       C7
yo me siento maniatada

Y tal vez,en un rincon,tal vez
quiera ceder y abandonar
esta prision que me encadena a el.

C#m            F#m           B
Debo dejarle y no puedo evitarle
C#m                F#m          B
como un iman el me aleja y me atrae
C#m                F#m          B
debo dejarle y no puedo evitarle
C#m                F#m          B
tu eres mi karma,en tu cruz me clavaste

Si atrapada estoy por el,
capturada en su pasion
que me desvela 
en estas sabanas de seda

Si,una lucha de poder
una guerra entre
mi amor y mi paciencia
y en el centro mi conciencia.

Y lo sé,no puedo mas,lo se
pero a sus besos y a su cuerpo
yo me siento maniatada

Y tal vez,en un rincon,tal vez
quiera ceder y abandonar
esta prision que me encadena a el.

Debo dejarle y no puedo evitarle
como un iman el me aleja y me atrae
debo dejarle y no puedo evitarle
tu eres mi karma,en tu cruz me clavaste
 
 
Chenoa - En Tu Cruz Me Clavaste :: indexed at Ultimate Guitar.
En Tu Cruz Me Clavaste tabs @ 911Tabs
People who played Chenoa - En Tu Cruz Me Clavaste also played these songs by Chenoa:
Ya No Quiero Verte Chords, Volverte A Ver Chords, Rutinas Chords, Algo De Los Dos Chords, Atrevete Chords, El Tiempo Que Me Das Chords

Quick tip, so you can enjoy En Tu Cruz Me Clavaste even more:

YourChords.com Guitar Chords and Tabs Archive is currently indexing over 240'000 songs from 21'000+ different artists. And new chords just keep on coming in, so you will surely never run out of them.

Show us your talent, perform En Tu Cruz Me Clavaste!

Here you can post a video or audio performance. Tell me more ...
Where can we find your performance? Tell me more ...
Your comment:
Please, log in to post your performance.