Artists by letter: A B C D E F G H I J K L M N O P Q R S T U V W X Y Z 0-9

 
Voy En El Metro
°Los RIFFS están al final.
°Los RIFFS son para la guitarra, solo que para más
  precisión se le adjuntó la letra.
°Lo que está entre paréntesis es opcional.
(°Se recomienda practicar muy bien los RIFFS antes de tocarse completa.)

::::::::::::::::::::::::::::::::::::::::::::::::::::::::::::::::::::::::::::

[[Intro]]

Esto es la impresión que tubo Chava Flores

cuando por primera vez se subió al metro:


A
Gracias al esfuerzo del pueblo y gobierno aunado,
                                               E
Fue posible la construcción de un sistema de Transporte Colectivo,

Que viene a dar a la ciudad un nuevo aspecto,
                  E7                      A
Y así colocarla entre las mejores del mundo.
                                    (RIFF-01)
En anteriores sexenios hemos visto. No, no, no, no, no... Pues si, no ps!
___________________________________________________________________________


A
Adiós mi linda Tacuba
      RIFF-02           E
Bella tierra tan risueña
        E7
Ya me voy de tu legaria
                  A
Tu marina, tu pensil     RIFF-03
       F#
Ya me voy me lleva el metro
                         Bm
Por ?tres pesos? a Taxqueña
          G#7
Si en dos horas no regreso
                     C#    (RIFF-04)
Guardarme una tumba aquí


A
Al bajar a los andenes
    RIFF-02         E
Escuché esta cantaleta
         E7
Al mirar llegar los trenes
                      A    RIFF-03
No se aviente para entrar
         F#
Si en diecisiete segundos
                     Bm   (RIFF-05)
No ha podido? ni se meta!
                  A
Ni se baje la banqueta
         E        A
Que se puede rostizar


___________________________________________________________________________

[[Coro]]
           A            E
Voy en el metro? ¡Que grandote, rapidote y segurote!
         E7             A                                          RIFF-03
¡Que deferencia del camión de mi compadre ?Filemón? (Que va al panteón)


          F#         Bm
Ahí no admiten guajolotes,
       E (RIFF-06)
ni tamarindos, zopilotes,

ni huacales con camotes,
        E7          A
ni costales con carbón
____________________________________________________________________________


A
¡Que se quite de la puerta!
        (RIFF-02)     E
Y luego luego que me quito
       E7
Y siguió la señorita
                     A    RIFF-03
¡Que se arrime más pa´ca!
         F#
¡Que no fume! ¿Cual? Ni fumo,
                      Bm
Ya me trae de su puerquito
         G#7
Yo por más que me la busco
                      C#   (RIFF-04)
No la ?jallo? dónde esta


A
Adiós, mi linda Tacuba
     (RIFF-02)     E
Ya pasamos por Cuitlahuac
     E7
Ya pasamos por Popotla
                 A
Y el Colegio Militar

RIFF-03  F#
Ya me estoy arrepintiendo
                      Bm
No haber hecho de "las aguas"
(RIFF-05)            A
Si me sigue esta nostalgia
       E           A
Yo me bajo en la normal.

[[Coro]]


RIFF 01:
                               EMPIEZA CANCI"N
e|-------------------------------------|
B|-------------------------------------|
G|-------------------------------------|
D|-------------------------------------|
A|-------0-------------0------------0--|
E|-0-2-4-----4--2--0-----2-4-0---------|


RIFF 02:

    A              E
e|-----------------------|
B|-----------------------|
G|-----------------------|
D|-----------------------|
A|--4--------3------2----|
E|-----------------------|
    tan  risueña
  esta canta- leta
     que me quito
     por Cuitlahuac


RIFF 03:

   A            F#
e|------------------|
B|------------------|
G|------------------|
D|------------------|
A|-0----------------|
E|----4----3----2---|
      me   voy
    2.SI  en   die..
     noad-miten
     no   fume
      me  estoy


RIFF 04:

e|---------|
B|-5-3-0---|
G|-------2-|
D|---------|
A|---------|
E|---------|


RIFF 05:

   Bm                   A
e|---------------------------|
B|---------------------------|
G|---------------------------|
D|-0---0------1------1----2--|
A|---------------------------|
E|---------------------------|
      se baje   la baqueta
      me sigue esta nostalgia


RIFF 06:

   E                                       A
e|--------------------------------------------|
B|--------------------------------------------|
G|--------------------------------------------|
D|--------------------------------------------|
A|-----2-4-5-4-2-------2-4-5-4-2-------2-4-0--|
E|-0-4-----------4-0-4-----------4-0-4--------|


______________________________________________________________
Espero les aya sido de su agrado mi trabajo, que lo disfruten!
 
 
Chava Flores - Voy En El Metro :: indexed at Ultimate Guitar.
Voy En El Metro tabs @ 911Tabs

Quick tip, so you can enjoy Voy En El Metro even more:

YourChords.com Guitar Chords and Tabs Archive is currently indexing over 240'000 songs from 21'000+ different artists. And new chords just keep on coming in, so you will surely never run out of them.

Show us your talent, perform Voy En El Metro!

Here you can post a video or audio performance. Tell me more ...
Where can we find your performance? Tell me more ...
Your comment:
Please, log in to post your performance.