Artists by letter: A B C D E F G H I J K L M N O P Q R S T U V W X Y Z 0-9

 
Smile
Guitar I

[Intro]

E Emaj7 A7 E


[Verse]

E                                            Emaj7
i got a baby and she lives just around the corner
A7                                                     E
she doesn't know that she's mine so i'll give her some time
E                                              Emaj7
everything single thing about her is nearly flawless
A7                                             E
but we're only friends when she gives me the time

            E                                         Emaj7                   
but when i try to hide the way i feel inside i get so lost in the thought of what
                                 A7                            E
its like to be alive seeing the same moon you see out your window
           E                                                 Emaj7
so i will sing the songs that only you have heard on top my cursed bed that in time
           A7                                    E
you swore became the only place you dreaded leaving


[Chorus]

E
i'm not going anywhere
A7
i'm not going anywhere
E
until i see you
A7
smile

E
i'm not going anywhere
A7
i'm not going anywhere
E
until i see you






Guitar II


[Intro+Verse]

     E           Emaj7           A7           E
e|---0---------2--------------0---------------0------------------------------|
B|----------------4--------------2-------------------------------------------|
G|---------------------------------------------------------------------------|
D|---------------------------------------------------------------------------|
A|---------------------------------------------------------------------------|
E|---------------------------------------------------------------------------|


[Chorus]

   E                          A7
e|-0-0-0-0-0---0000---000------0-0-0-0-0/2-2222---000--------|
B|-0-0-0-0-0/3-3333/0-000------2-2-2-2-2---2222---222--------|
G|-1-1-1-1-1---1111---111------1-1-1-1-1---1111---111--------|  x4
D|-2-2-2-2-2---2222---222------2-2-2-2-2---2222---222--------|
A|-2-2-2-2-2---2222---222------0-0-0-0-0---0000---000--------|
E|-0-0-0-0-0---0000---000------0-0-0-0-0---0000---000--------|


************************************

| x   Dead note
| g   Grace note
| (n) Ghost note
| h   Hammer-on
| p   Pull-off
| r   Release
| >   Accented note
| t   Tapping
| b   Bend
| br  Bend release
| pb  Pre-bend
| pbr Pre-bend release
| /   Slide up
| \   Slide down
| ~   Vibrato
| s   Slap
| P   Pop
| PM  Palm mute
| TR  Trill
| N   Tremolo

************************************
 
 
Dandelion Hands - Smile :: indexed at Ultimate Guitar.
Smile tabs @ 911Tabs

Quick tip, so you can enjoy Smile even more:

If you don't really know how to deal with "Absus4" chord and his equally confusing brothers, just put the mouse cursor over them and you will be shown a helpful chord diagram.

Show us your talent, perform Smile!

Here you can post a video or audio performance. Tell me more ...
Where can we find your performance? Tell me more ...
Your comment:
Please, log in to post your performance.