Artists by letter: A B C D E F G H I J K L M N O P Q R S T U V W X Y Z 0-9

 
I Like You
https://dandelionhands.bandcamp.com/track/i-like-you





C
i am scared to say i miss you
F
last time i had you i should have kissed you 
C
these feelings fester up inside 
F
but how could i deny these butterflies 

C
i hope i’m not stuck on your waiting list 
F
because i dream of you in colors that don’t exist 
C
and i think its high time for you to know 
F


G          F          G
i like you i like you i like you 
       F
and i hope you like me too 


C
you’ve been there through all i’ve been through 
F
kept me sane and held my hand too 
C
the way you make me feel alright 
F
so how could i deny your lips on mine 

C
i hope i’m not stuck on your waiting list 
F
because i dream of you in colors that don’t exist 
C
and i think its high time for you to know 
F

G           F         G
i like you i like you i like you 
       F
and i hope you like me too


C
i am scared to say i miss you
F
last time i had you i should have kissed you 
C
these feelings fester up inside 
F
but how could i deny these butterflies 




[Intro]

e|--------------|
B|--------1-----|
G|----0---------| x4
D|--------------|
A|--3---3-------|
E|--------------|


[Verse]


e|-------------------------------------------|
B|--------1---------3---------1-------0~1----|
G|----0-------0---------0----------0---------|
D|-------------------------------------------|
A|--3---3--------3---------3----------3------|
E|-------------------------------------------|


e|--------------------0---------|
B|--------1-----3-------3---1---|
G|----2-----2-----2-------------|
D|--3---3-----3-----3-----3-----|
A|------------------------------|
E|------------------------------|


e|-------------------------------------------|
B|--------1---------3---------1-------0~1----|
G|----0-------0---------0----------0---------|
D|-------------------------------------------|
A|--3---3--------3---------3----------3------|
E|-------------------------------------------|


e|--------------3-----0-------|
B|--------1-------------------|
G|----2-----2-----2-----2-----|
D|--3---3-----3-----3----3----|
A|----------------------------|
E|----------------------------|


[Chorus]

e|-----------3----------------------1---------------|
B|--------3-----3---------------1--------1----------|
G|-----4-----------4--------2----------------2------|
D|-3/5------------------3---------------------------|
A|--------------------------------------------------|
E|--------------------------------------------------|


e|-----------3----------------------1---------------|
B|--------3-----3---------------1--------1----------|
G|-----4-----------4--------2----------------2------|
D|-3/5------------------3---------------------------|
A|--------------------------------------------------|
E|--------------------------------------------------|


e|-----------1---------------------------|
B|--------1-----1------------------------|
G|-----2-----------2---------------------|
D|--3-------------------3---3---3---3----|
A|---------------------------------------|
E|---------------------------------------|



************************************

| x   Dead note
| g   Grace note
| (n) Ghost note
| h   Hammer-on
| p   Pull-off
| r   Release
| >   Accented note
| t   Tapping
| b   Bend
| br  Bend release
| pb  Pre-bend
| pbr Pre-bend release
| /   Slide up
| \   Slide down
| ~   Vibrato
| s   Slap
| P   Pop
| PM  Palm mute
| TR  Trill
| N   Tremolo

************************************
 
 
Dandelion Hands - I Like You :: indexed at Ultimate Guitar.
I Like You tabs @ 911Tabs

Quick tip, so you can enjoy I Like You even more:

YourChords.com Guitar Chords and Tabs Archive is currently indexing over 240'000 songs from 21'000+ different artists. And new chords just keep on coming in, so you will surely never run out of them.

Show us your talent, perform I Like You!

Here you can post a video or audio performance. Tell me more ...
Where can we find your performance? Tell me more ...
Your comment:
Please, log in to post your performance.