Artists by letter: A B C D E F G H I J K L M N O P Q R S T U V W X Y Z 0-9

 
Jeune Et Con Acoustic
Jeune et con - Damien Saez
Salut à tous. Vous trouverez
la vidéo explicative sur ma chaîne
youtube ( pseudo : ipsaous ).
@+ et bon courage ! :)
Fait à partir de cette version :
http://www.youtube.com/watch?v=FiIAvJaXGBY


[Intro guitare]

e |---------------------------------------------|
B |------3--------1------0----------------------|
G |----0-------0-------0------0--2----0---0-----|
D |--2---------------------0--------0---4-------|
A |---------3--------3--------------------------|
E |---------------------------------------------|

e |---------------------------------------------|
B |------3--------1------0-------------0--------|
G |----0-------0-------0------0--0h2-----2--0---|
D |--2---------------------0---------0----------|
A |---------3--------3--------------------------|
E |---------------------------------------------|


[Couplet]

    Em      C               G       D
e |-------0--------0-------------0--------0--------|
B |----0--------0-------0-----0--------0-------0---|
G |------------------------------------------------|
D |---------------------------------0-------0------|
A |---------3--------3-----------------------------|
E |-0-----------------------3----------------------|

Ensuite, toujours faire cette séquence d'accord pour
le refrain :

Em - C - G - ( Dsus4 - D )

**********************************************

Possibilité pour la rythmique :

( Le coup entre parenthèse se fait à vide pendant
la transition des accords )

Em
B B B B

C
HBHBHBHB(H)

G
B B B B

Dsus4  D
 H     HBHBHB(H)

Ecoutez bien la vidéo pour alterner entre les passages en arpèges ( couplet )
et le refrain ( en rythmique )

*************************************************


[Couplet 1]

Encore un jour se léve sur la planète France
Je sors doucement de mes rêves
Je rentre dans la danse comme toujours
Il est huit heures du soir
J'ai dormi tout le jour
Je me suis encore couché trop tard
Je me suis rendu sourd

Encore, encore une soirée o' la jeunesse France
Encore, elle va bien s'amuser puisqu'ici rien n'a de sens
Alors on va danser, faire semblant d'être heureux
Pour aller gentiment se coucher mais demain rien ira mieux


[Refrain]

Puisque on est jeune et con
Puisque ils sont vieux et fous
Puisque des hommes crévent sous les ponts
Et ce monde s'en fout
Puisqu'on est que des pions
Contents d'être à genoux
Puisque je sais qu'un jour nous gagnerons à devenir fous
Devenir fous, devenir fous...


[Couplet 2]

Encore un jour se léve sur la planète France
Mais j'ai depuis longtemps perdu mes rêves
Je connais trop la danse
Comme toujours, il est huit heures du soir j'ai dormi tout le jour
Je sais qu'on est quelques milliards ? chercher l'amour

Encore, encore une soirée o' la jeunesse france
Encore, elle va bien s'amuser dans cet état d'urgence
Alors elle va danser faire semblant d'exister
Qui sait ?
Si on ferme les yeux on vivra vieux


[Refrain]

Puisque on est jeune et con
Puisque ils sont vieux et fous
Puique les hommes crévent sous les ponts
Et ce monde s'enfout
Puisqu'on est que des pions
Contents d'être à genoux
Puisque je sais qu'un jour nous gagnerons à devenir fous
Devenir fous, devenir fous...


[Pont]

Encore un jour se léve sur la jeunesse france
J'ai perdu mes rêves, je connais trop la danse
Je sais qu'on est quelques milliards


[Outro]

Encore un jour se léve sur la planète France
Mais j'ai depuis longtemps perdu mes rêves
Je connais trop la danse
Comme toujours, il est huit heures du soir
J'ai dormi tout le jour
Je sais qu'on est quelques milliards
A chercher l'amour
 
 
Damien Saez - Jeune Et Con Acoustic :: indexed at Ultimate Guitar.
Jeune Et Con Acoustic tabs @ 911Tabs

Quick tip, so you can enjoy Jeune Et Con Acoustic even more:

After the registration (which takes just 10 seconds, remember?) you will be able to use your profile - your very own piece of YourChords.com.

Show us your talent, perform Jeune Et Con Acoustic!

Here you can post a video or audio performance. Tell me more ...
Where can we find your performance? Tell me more ...
Your comment:
Please, log in to post your performance.