Artists by letter: A B C D E F G H I J K L M N O P Q R S T U V W X Y Z 0-9

 
Dogs
Tuning

E
D (Up)
A (Up)
D
A
D (Down)

I have laid out all the separate picked sections and labeled them.  At the bottom of the 
are the lyrics with all the relevant sections attached to them so you can piece the 
together, it’s not that hard but I think you’ll agree it is one of the best songs on 9!  I hope you enjoy!

Verses

E|-----------------------------------------------------|
D|------0---------------0--------------0-----0------0--|
A|----0-----0---0---0------0---0-----0-----0----2/4----|
D|------------0-------0------0-----0-----0-------------|
A|-----------------------------------------------------|
D|-0--------------4--------------5---------------------|

E|-----------------------------------------------------|
D|------0---------------0--------------0-----0---------|
A|----0-----0---0---0------0---0-----0-----0---2/4"4/5-|
D|------------0-------0------0-----0-----0-------------|
A|-----------------------------------------------------|
D|-0--------------4--------------5---------------------|

E|-----------------------------------------------------|
D|------0---------------0--------------0-----0-----0---|
A|----0-----0---0---0------0---0-----0-----0-----0---0-|
D|------------0-------0------0-----0-----0-----0-------|
A|-----------------------------------------------------|
D|-0--------------4--------------5---------------------|

Bridge

E|-----------------------------------------------------|
D|-------0-----0-----0-------------0-----0-----0-------|
A|-----0-----0-----0---0---0-----0-----0-----0---0---0-|
D|---------0-----0-------0-----------0-----0-------0---|
A|-0h2-----------------------2/4-----------------------|
D|-----------------------------------------------------|

E|-----------------------------------------------------|
D|-------0-----0-----0-------------0-----0-----0-------|
A|-----0-----0-----0---0---0-----0-----0-----0---0---0-|
D|---------0-----0-------0-----------0-----0-------0---|
A|-0h2-----------------------2/4-----------------------|
D|-----------------------------------------------------|

Chorus

E|------------------------------------------------------|
D|------0------0-----0-----0-------0-----0------0-----0-|
A|----0------0-----0-----0-------0-----0------0-----0---|
D|-----------------------------------0------0-----0-----|
A|------------------------------------------------------|
D|-12-----11-----9-----7-----4/5------------------------|

E|------------------------------------------------------|
D|--------0------0-----0-----0------0-----0-----0-----0-|
A|------0------0-----0-----0------0-----0-----0-----0---|
D|------------------------------------0-----0-----0-----|
A|------------------------------------------------------|
D|11/12-----11-----9-----7----4/5-----------------------|

E|------------------------------------------------------|
D|--------0------0-----0-----0------0-----0-----0-----0-|
A|------0------0-----0-----0------0-----0-----0-----0---|
D|------------------------------------0-----0-----0-----|
A|------------------------------------------------------|
D|11/12-----11-----9-----7----4/5-----------------------|

E|------------------------------------------------------|
D|--------0------0-----0-----0------0-----0-----0-----0-|
A|------0------0-----0-----0------0-----0-----0-----0---|
D|------------------------------------0-----0-----0-----|
A|------------------------------------------------------|
D|11/12-----11-----9-----7----4/5-----------------------|

Middle 8

Just alternate between the chords below, it is obviously based around the bridge except 
are more instrumental parts which harmonize to embellish the chords.

Bm7sus4 Dmaj7sus2

E|--0---------0------|
D|--0---------0------|
A|--0---------0------|
D|--0---------0------|
A|--2---------4------|
D|-------------------|

CHORD INSTRUMENTAL

Again just alternate these chords three times immediately after the middle 8’s.

Dsus2   G6sus2

E|--0---------0------|
D|--0---------0------|
A|--0---------0------|
D|--0---------0------|
A|--0---------5------|
D|--0---------5------|

INSTRUMENTAL

(SECOND GUITAR played over chords slowly)

E|--------------------------|
D|--------------------------|
A|--------------------------|
D|--------2--0--------4--5--|
A|-----0-----------5--------|
D|--0-----------5-----------|

Lyrics

VERSE

She lives with an orange tree
And the girl that does yoga
She picks the dead ones from the ground
When we come over

And she gives
I get
Without giving
Anything to me

BRIDGE

Like a morning sun
Like a morning
Like a morning sun
Like a good good morning sun

CHORUS

Girl that does yoga
When we come over
Girl that does yoga

VERSE

Well he lives in a little house
On the side of a little hill
Picks the litter from the ground
Litter little brother spills

He gives
I get
Without giving
Anything to me

BRIDGE

And the dogs they run
And the dogs they
And the dogs they run
In the good good morning sun

CHORUS

Side of a little hill
Litter little brother spills
Side of a little hill

MIDDLE 8 (Technically 2 middle 8’s!)

And she's always dressed in white
She's like an angel
Man she burns our eyes
When she turns
She pulls a smile
We drive her 'round
And she drives us wild
And she moves like a little girl
I become a child
Man she moved my world
And she gets splashed in paint
And turns away
And leaves me standing

CHORDS & INSTRUMENTAL
(See above for chords and second guitar tab)
Dsus2   G6sus2
Dsus2   G6sus2
Dsus2   G6sus2
Bm7sus4 Dmaj7sus2
Bm7sus4 Dmaj7sus2

VERSE

She lives with an orange tree
And a girl that does yoga
Got a wolf to keep her warm
When he comes over

And she gives
He gets
Without giving
Anything to see

BRIDGE

And the day it ends
And the day it
And the day it ends
And there's no need for me

CHORUS

With a girl that does yoga
When we come over
With a girl that does yoga

Tabbed by Andrew and a Braindead Monkey
 
 
Damien Rice - Dogs :: indexed at Ultimate Guitar.
Dogs tabs @ 911Tabs

About the artist behind Dogs:

Damien Rice (born December 7, 1973) is an Irish folk singer. He was born in Dublin, Ireland, to George and Maureen Rice and was raised in Celbridge, County Kildare, Ireland. [1]

He has released five albums: O, B-Sides, 9, Live At Fingerprints Warts & All, and Live from the Union Chapel.

Indexed at Wikipedia.

Show us your talent, perform Dogs!

Here you can post a video or audio performance. Tell me more ...
Where can we find your performance? Tell me more ...
Your comment:
Please, log in to post your performance.