Artists by letter: A B C D E F G H I J K L M N O P Q R S T U V W X Y Z 0-9

 
Its All About You
-------------------------------------------------------------------------------
                  SONG: DAIKI KASHO - IT'S ALL ABOUT YOU
-------------------------------------------------------------------------------
Tuning: C#G#C#F#A#d#
User: Tropical13
e-mail: [email protected]
***this is my first tab so it's not the prettiest.
-The other tab for this song was really good. I just did some reworking to make 
it more playable/comfortable. Strumming is not provided, but it's very easy to pick up.
-Some sections have more guitar parts than others, and I condensed a few of them for readability.

PRE-INTRO:
d#|-------------------------------------------------x--x--x--x--x--x--x--------|
A#|-------------------------------------------------x--x--x--x--x--x--x--------|
F#|-------------------------------------------------x--x--x--x--x--x--x--------|
C#|---7--------7--------7-----------7--7--7--7------x--x--x--x--x--x--x--------|
G#|---7--------7--------7-----------7--7--7--7------x--x--x--x--x--x--x--------|
C#|---7--------7--------7-----------7--7--7--7------x--x--x--x--x--x--x--------|

INTRO:
     guitar 1
d#|----------------------------------------------------------------------------|
A#|----------------------------------------------------------------------------|
F#|------6--------7--------9---------------------------------------------------|
C#|------6--------7--------9--------7--------4--------7--------0---------------| X2
G#|------4--------5--------7--------7--------4--------7--------0---------------|
C#|------6--------7--------9--------7--------4--------7--------0---------------|

     guitar 2    
d#|----------------------------------------------------------------------------|
A#|------12-------14-------12--14-15-14-12-10-12-------14------12------10------|
F#|------x--------x--------x---x--x--x- x--x--x--------x-------x-------x-------|
C#|------9--------11-------9---11-12-11-9--7--9--------11------9-------7-------| X2
G#|----------------------------------------------------------------------------|
C#|----------------------------------------------------------------------------|

     guitar 3 (2nd time only)
d#|----------------------------------------------------------------------------|
A#|----------------------------------------------------------------------------|
F#|------13-------14-------13-------9--------13-------14-------13------9-------|
C#|------x--------x--------x--------x--------x--------x--------x-------x-------|
G#|------11-------12-------11-------7--------11-------12-------11------7-------|
C#|----------------------------------------------------------------------------|

VERSE:
d#|----------------------------------------------------------------------------|
A#|----------2-2-2/3-2----------2-2-2/3-2----------2-2-2/3-2---------2-2-2/3-2-|
F#|----4--2---------------4--2---------------4--2--------------4--2------------|
C#|----------------------------------------------------------------------------| X2
G#|--0-------------------------------------------------------------------------|
C#|---------------------0------------------4------------------0----------------|

PRE-CHORUS (one or two guitars depending on skill level)
d#|----------------------------------------------------------------------------|
A#|----------------------------------------------------------------------------|
F#|-----13-14-------13-14-------13-14-------13-14-------13-14-------13-14------|
C#|2-2--x--x---4-4--x--x---0-0--x--x---2-2--x--x---4-4--x--x---7-7--x--x--9-0--|
G#|2-2--11-12--4-4--11-12--0-0--11-12--2-2--11-12--4-4--11-12--7-7--11-12-9-0--|
C#|2-2---------4-4---------0-0---------2-2---------4-4---------7-7--------9-0--|


CHORUS: 
d#|----------------------------------------------------------------------------|
A#|----------------------------------------------------------------10--12--14--|
F#|------6--------7--------9---------------------------------------x---x---x---|
C#|------6--------7--------9--------7--------4--------7--------0---7---9---11--| X2
G#|------4--------5--------7--------7--------4--------7--------0---------------|
C#|------6--------7--------9--------7--------4--------7--------0---------------|


Repeat INTRO, VERSE, PRE-CHORUS, and CHORUS


PRE-BRIDGE (acoustic guitar strumming)
d#|----------------------------------------------------------------------------|
A#|-------------------------------------------------5--------------------------|
F#|---------6-----------9--------------9------------4--------------------------|
C#|---------6-----------9--------------9------------2--------------------------| X2
G#|---------4-----------7--------------0------------2--------------------------|
C#|---------4-----------7--------------0------------2--------------------------|
     3rd time
d#|----------------------------------------------------------------------------|
A#|----------------------------------------------------------------------------|
F#|---------6-----------9--------------11-----------7--------------------------|
C#|---------6-----------9--------------11-----------7--------------------------|
G#|---------4-----------7--------------9------------0--------------------------|
C#|---------4-----------7--------------9------------0--------------------------|

Bridge (picking)
d#|---------------------------------------------------------------7--------7---|
A#|----2---------5---------5---------5---------5---------5--------5--------5---|
F#|--2---2-----2---2-----2---2-----2---2-----2---2-----2---2-------------------|
C#|----------0---------2----------------------------------------7---7----7---7-|
G#|4-----------------------------0-------------------0-------------------------|
C#|----------------------------------------4------------------0--------0-------|

d#|--------------------------------------------7---------7---------------------|
A#|----5---------5---------5---------5---------5---------5---------------------|
F#|--2---2-----2---2-----2---2-----2---2----------------------2-22-2222222222-2|
C#|----------0---------2---------------------7---7-----7--7---0-00-0000000000-0|
G#|4-----------------------------0-------------------0--------0-00-0000000000-0|
C#|----------------------------------------4------------------0-00-0000000000-0|


Repeat CHORUS and INTRO

OUTRO:
d#|----------------------------------------------------------------------------|
A#|----5---------5---------5---------5---------5---------5--------5--------5---|
F#|--2---2-----2---2-----2---2-----2---2-----2---2-----2---2----2---2----2---2-|
C#|----------0---------2-------------------------------------------------------|
G#|4-----------------------------0-------------------0-------------------------|
C#|----------------------------------------4------------------0--------0-------|

d#|----------------------------------------------------------------------------|
A#|----5---------5---------5---------5---------5---------5----5-55-5555555555--|
F#|--2---2-----2---2-----2---2-----2---2-----2---2-----2---2--2-22-2222222222--|
C#|----------0---------2--------------------------------------0-00-0000000000--|
G#|4-----------------------------0-------------------0--------0-00-0000000000--|
C#|----------------------------------------4------------------0-00-0000000000--| 


************************************
Thanks for viewing!
Any feedback at all is greatly appreciated.
************************************
 
 
Daiki Kasho - Its All About You :: indexed at Ultimate Guitar.
Its All About You tabs @ 911Tabs
People who played Daiki Kasho - Its All About You also played these songs by Daiki Kasho:
Its All About You Tab, Its All About You Tab, Soul Surfer Chords, Its All About You, Soul Surfer

Quick tip, so you can enjoy Its All About You even more:

Try out the AutoScroller option ... It scrolls the page for you, so you can totally focus on nailing that solo. You can choose among different speeds using your mouse or your keyboard (keys 0, 1, 2 and 3).

Show us your talent, perform Its All About You!

Here you can post a video or audio performance. Tell me more ...
Where can we find your performance? Tell me more ...
Your comment:
Please, log in to post your performance.