Artists by letter: A B C D E F G H I J K L M N O P Q R S T U V W X Y Z 0-9

 
Crossbearer
CAVE IN - CROSSBEARER

pretty sure cave in play in Eb, but I tabbed it in D anyway.

KEY: BD= Bend down.
     tr= Trill
     clink = strum strings behind the nut

e-------------0-----------------------------|
    B-4--3--------3--(let ring)-----------------|
Gtr G-------4-----4-----------------------------| 1,3
 1  D-------------------------------------------|
    A-------------------------------------------|
    D-------------------------------------------|

e---------------0---0-----------0---0-------|
    B-4--3--------3---3---3-------3---3---3---3-| 1,3
Gtr G-------4---4-----------4---4-----------4---|
 2  D-------------------------------------------|
    A-------------------------------------------|
    D-------------------------------------------|

e--------------1-------------------------------|
    B-4--3---------3--(Let ring)-------------------|
Gtr G-------4--2---4-------------------------------|
 1  D----------------------------------------------| 2,4
    A----------------------------------------------|
    D----------------------------------------------|

e---------------------1----------------1-------|
    B-4--3----------3---3---3---3----3---3---3-----|
Gtr G------4--2---4---4-------4----4---4-------4---| 2,4
 2  D--------------------------------------------3-|
    A----------------------------------------------|
    D----------------------------------------------|

e-----------------------------------------------------------------|
    B-----------------------------------------------------------------|
Gtr G-----------------------------------------------------------------| 1,3
 1  D-----------------------------------------------------------------|
    A-1-1-1-1-1-1-1-1-1-1-1-1-1-1-1-1-3-3-3-3-3-3-3-3-3-3-3-3-3-3-3-3-|
    D-1-1-1-1-1-1-1-1-1-1-1-1-1-1-1-1-3-3-3-3-3-3-3-3-3-3-3-3-3-3-3-3-|
      PM PM PM PM PM PM PM PM PM PM PM PM PM PM PM PM PM PM PM PM PM

e-------------0-----------------------0---------------------------|
    B----3-----3-----3-----3-----3-----3-----3-----3------------------|
Gtr G-4-----4-----------4-----4-----4-----------4---------------------| 1,3
 2  D-----------------------------------------------------------------|
    A-----------------------------------------------------------------|
    D-----------------------------------------------------------------|

e-----------------------------------------------------------------|
    B-----------------------------------------------------------------|
Gtr G-----------------------------------------------------------------| 2,4
 1  D-----------------------------------------------------------------|
    A-1-1-1-1-1-1-1-1-1-1-1-1-3-3-3-3-4-4-4-4-4-4-4-4-4-4-4-4-4-4-4-4-|
    D-1-1-1-1-1-1-1-1-1-1-1-1-3-3-3-3-4-4-4-4-4-4-4-4-4-4-4-4-4-4-4-4-|
      PM PM PM PM PM PM PM PM PM PM PM PM PM PM PM PM PM PM PM PM PM

e-------------0-----------1-------1--------1-------1--------1-----|
    B----3-----3-----3-----3-----3-------3--------3-------3--------3--|
Gtr G-4-----4-----------4-----------4-------4--------4-------4-------4| 2,4
 2  D-----------------------------------------------------------------|
    A-----------------------------------------------------------------|
    D-----------------------------------------------------------------|

e-1-------------|
    B-3--(Let ring)-|
Gtr G-4-------------|
1+2 D---------------|
    A---------------|
    D---------------|

e-----------------------|
    B-----------------------|
Gtr G-----------------------|
1+2 D----------1------------|
    A-11111111-1---11111111-|
    D-11111111-1---11111111-|
      PM PM PM     PM PM PM

e---------------------------------|
    B---------------------------------|
Gtr G---------------------------------|
1+2 D----------1------------4\3-----7-|
    A-11111111-1---11111111-2\1--0--5-|
    D-11111111-1---11111111------0----|
      PM PM PM     PM PM PM      PM

e--------------------------------|
    B--------------------------------|
Gtr G--------------------------------|
1+2 D----------1---------------------|
    A-11111111-1---11111111-11111111-|
    D-11111111-1---11111111-11111111-|
      PM PM PM     PM PM PM PM PM PM

e-------------------------10----|
    B----------------------10----10-|
Gtr G-------------------------------|
1+2 D----------1--------------------|
    A-11111111-1---11111111---------|
    D-11111111-1---11111111---------|
      PM PM PM     PM PM PM

PLAYS THESE 4 BARS TWICE

e-101010101010101010101010-10-(let ring)-|
    B----------------------------------------|
Gtr G----------------------------------------|
 1  D----------------------------------------|
    A----------------------------------------|
    D----------------------------------------|

e-----------------/22-2222-10-(Let ring)-|
    B----------------------------------------|
Gtr G----------------------------------------|
 2  D----------------------------------------|
    A----------------------------------------|
    D----------------------------------------|

e-----------------|
    B-----------------|
Gtr G-----------------|  x3
1+2 D----------7--8p7-|
    A-1-1-1-1--7------|
    D-1-1-1-1--7------|
      PM  PM

e-------------------------|
    B-------------------------|
Gtr G-------------------------|
1+2 D-11-11-11-10-16-16-16-15-|
    A-------------------------|
    D-------------------------|

e-----------------|
    B-----------------|
Gtr G-----------------|  x3
1+2 D----------7--8p7-|
    A-1-1-1-1--7------|
    D-1-1-1-1--7------|
      PM  PM

e---------------|
    B---------------|
Gtr G----BD---------|
1+2 D----7------8-7-|
    A-1-----1---8-7-|
    D-1-----1---8-7-|
      PM    PM

e------------------------------------------------|
    B------------------------------------------------|
Gtr G-------------------------9tr10------------------|
1+2 D----------7--8p7--------------7----------7-8P7--|
    A-1-1-1-1--7------1-1-1-1--------1-1-1-1--7------|
    D-1-1-1-1--7------1-1-1-1--------1-1-1-1--7------|
      PM  PM          PM PM          PM PM

e-------------------------|
    B-------------------------|
Gtr G-------------------------|
1+2 D-11-11-11-10-16-16-16-15-|
    A-------------------------|
    D-------------------------|

e-----------------|
    B-----------------|
Gtr G-----------------|  x3
1+2 D----------7--8p7-|
    A-1-1-1-1--7------|
    D-1-1-1-1--7------|
      PM  PM

e-------------------------|
    B-------------------------|
Gtr G-------------------------|
1+2 D-11-11-11-10-16-16-16-15-|
    A-------------------------|
    D-------------------------|

e---------------------------|
    B---------------------------|
Gtr G---------------------------|
1+2 D--------------1-(Let ring)-|
    A-10-9---------1------------|
    D-------12-11--1------------|
      PM PM PM PM

e-------------------------------------------------------|
    B-------------------------------------------------------|
Gtr G-11-11-11-10-10-10-10-10-10-10-10-10-11-11-11-10-10-10-|
 1  D-13-13-13-13-13-13-13-13-13-13-13-13-13-13-13-13-13-13-|
    A-------------------------------------------------------|
    D-------------------------------------------------------|
      PM PM PM PM PM PM PM PM PM PM PM PM PM PM PM PM PM PM

e---------------------------------|
    B---------------------------------|
Gtr G---------------------------------|
 2  D-1-(Still ringing from last bar)-|
    A-1-------------------------------|
    D-1-------------------------------|

e--------------------|
    B------9h11-12h14----|
Gtr G-10h11--------------|
 1  D--------------------|
    A--------------------|
    D--------------------|

e---------------------------------|
    B---------------------------------|
Gtr G---------------------------------|
 2  D-1-(Still ringing from last bar)-|
    A-1-------------------------------|
    D-1-------------------------------|

e-------------------------------------------------------|
    B-------------------------------------------------------|
Gtr G-11-11-11-10-10-10-10-10-10-10-10-10-11-11-11-10-10-10-|
 1  D-13-13-13-13-13-13-13-13-13-13-13-13-13-13-13-13-13-13-|
    A-------------------------------------------------------|
    D-------------------------------------------------------|
      PM PM PM PM PM PM PM PM PM PM PM PM PM PM PM PM PM PM

e---------------------------------|
    B---------------------------------|
Gtr G---------------------------------|
 2  D-1-(Still ringing from last bar)-|
    A-1-------------------------------|
    D-1-------------------------------|

e----------------|
    B-14-12-11h12p11-|
Gtr G----------------|
 1  D----------------|
    A----------------|
    D----------------|

e---------------------------------|
    B---------------------------------|
Gtr G---------------------------------|
 2  D-1-(Still ringing from last bar)-|
    A-1-------------------------------|
    D-1-------------------------------|

e-------------------------------------------------------|
    B-------------------------------------------------------|
Gtr G-11-11-11-10-10-10-10-10-10-10-10-10-11-11-11-10-10-10-|
 1  D-13-13-13-13-13-13-13-13-13-13-13-13-13-13-13-13-13-13-|
    A-------------------------------------------------------|
    D-------------------------------------------------------|
      PM PM PM PM PM PM PM PM PM PM PM PM PM PM PM PM PM PM

e---------------|
    B--9 (Let ring)-|
Gtr G---------------|
 2  D---------------|
    A---------------|
    D---------------|

e-------------------------|
    B-14-------14-------14----|
Gtr G-------------------------|
 1  D----16-15----16-15----16-|
    A-------------------------|
    D-------------------------|

e---------------|
    B--9 (Let ring)-|
Gtr G---------------|
 2  D---------------|
    A---------------|
    D---------------|

e-------------------------------------------------------|
    B-------------------------------------------------------|
Gtr G-11-11-11-10-10-10-10-10-10-10-10-10-11-11-11-10-10-10-|
 1  D-13-13-13-13-13-13-13-13-13-13-13-13-13-13-13-13-13-13-|
    A-------------------------------------------------------|
    D-------------------------------------------------------|
      PM PM PM PM PM PM PM PM PM PM PM PM PM PM PM PM PM PM

e---------------|
    B--9 (Let ring)-|
Gtr G---------------|
 2  D---------------|
    A---------------|
    D---------------|

e-------|
    B-------|
Gtr G-3-3-3-|
1+2 D-1-1-1-|
    A-1-1-1-|
    D-1-1-1-|

e-----------------------------------------|
    B-----------------------------------------|
Gtr G-4-4-4-4-11-11-11-11-10-10-10-10-6-6-6-6-| 1,3
 1  D-----------------------------------------|
    A-2-2-2-2-9--9--9--9--8--8--8--8--4-4-4-4-|
    D-----------------------------------------|

e-------------------|------------------|
    B-------14p12p11h12-|-------9h11-12h14-|
Gtr G-10h11-------------|-10h11------------|  1,3
 2  D-------------------|------------------|
    A------- x3 --------|------------------|
    D-------------------|------------------|

e-----------------------------------------|
    B-----------------------------------------|
Gtr G-4-4-4-4-11-11-11-11-10-10-10-10-6-6-6-6-| 2
 1  D-----------------------------------------|
    A-2-2-2-2-9--9--9--9--8--8--8--8--4-4-4-4-|
    D-----------------------------------------|

e-------------------|----------|
    B-------14p12p11h12-|-14-12-11-|
Gtr G-10h11-------------|----------| 2
 2  D-------------------|----------|
    A------- x3 --------|----------|
    D-------------------|----------|

e---------------------------------------|
    B---------------------------------------|
Gtr G-4-4-4-4-11-11-11-11-10-10-10-10-3-3-3-| 4
 1  D---------------------------------1-1-1-|
    A-2-2-2-2-9--9--9--9--8--8--8--8--1-1-1-|
    D---------------------------------1-1-1-|

e-------------------|-------|
    B-------14p12p11h12-|-------|
Gtr G-10h11-------------|-3-3-3-| 4
 2  D-------------------|-1-1-1-|
    A------- x3 --------|-1-1-1-|
    D-------------------|-1-1-1-|

e-------|
    B-------|
Gtr G-3-3-3-|
 2  D-1-1-1-|
    A-1-1-1-|
    D-1-1-1-|

e------------------------------------------------------------------|
    B---------------------------------------------------------9h11-12h14-------------|
Gtr G-11-11-11-10-10-10-10-10-10-10-10-11-11-11-10-10-10-10h11-----------------------|
 1  D-13-13-13-13-13-13-13-13-13-13-13-13-13-13-13-13-13-----------------------------|
    A--------------------------------------------------------------------------------|
    D--------------------------------------------------------------------------------|
      PM PM PM PM PM PM PM PM PM PM PM PM PM PM PM PM PM

e--------------|
    B--------------|
Gtr G--------------|
 2  D-1------------|
    A-1-(Let ring)-|
    D-1------------|

e-----------------------------------------------------------------------|
    B--------------------------------------------------------14-12-11h12p11-|
Gtr G-11-11-11-10-10-10-10-10-10-10-10-10-11-11-11-10-10-10-----------------|
 1  D-13-13-13-13-13-13-13-13-13-13-13-13-13-13-13-13-13-13-----------------|
    A-----------------------------------------------------------------------|
    D-----------------------------------------------------------------------|
      PM PM PM PM PM PM PM PM PM PM PM PM PM PM PM PM PM PM

e-------------------------------------------------------------------------|
    B-------------------------------------------------------------------------------|
Gtr G----------------------------------------------3-----4----3-(hold)--------------|
 2  D-1-----------------------------------------------------------------------------|
    A-1-(Let ring for next 3 bars)--------------------------------------------------|
    D-1-----------------------------------------------------------------------------|

e-----------------------------------------------------------------------|
    B-------------------------------------------------------------9h11-12h14|
Gtr G-11-11-11-10-10-10-10-10-10-10-10-10-11-11-11-10-10-10--10h11----------|
 1  D-13-13-13-13-13-13-13-13-13-13-13-13-13-13-13-13-13-13-----------------|
    A-----------------------------------------------------------------------|
    D-----------------------------------------------------------------------|
      PM PM PM PM PM PM PM PM PM PM PM PM PM PM PM PM PM PM

e-----------------------------------------------------------------------|
    B-----------------------------------------------------------------------|
Gtr G-3---------------------------------------------------------------------|
 2  D---------------------------------------------------------3-(hold)------|
    A-----------------------------------------------------------------------|
    D-----------------------------------------------------------------------|

e-----------------------------------------------------------------------|
    B-----------------------------------------------------------------------|
Gtr G-11-11-11-10-10-10-10-10-10-10-10-10-11-11-11-10-10-10-10-10-10-10-----|
 1  D-13-13-13-13-13-13-13-13-13-13-13-13-13-13-13-13-13-13-13-13-13-13--6/8|
    A--------------------------------------------------------------------6/8|
    D--------------------------------------------------------------------6/8|

e-----------------------------------------------------------------------|
    B----clink--------------------------------------------------------------|
Gtr G-3--------------------------------------------------------4-3--4-3-----|
 2  D-------------------------------------------------------------------4-3-|
    A-----------------------------------------------------------------------|
    D-----------------------------------------------------------------------|

e---------|
    B---------|
Gtr G-9-------|
1+2 D-7-------|
    A-8-------|
    D-7-------|

e-------------------------------------------------------------|
    B--------------------------------------------8h10h12-11h13h15-|
Gtr G-------------------9--------------10h12h14-------------------| 1,3
1+2 D-----------------8-7-----------------------------------------|
    A-1-1-1-1-1-1-1-1-8-8-1-1-1-1-1-0-----------------------------|
    D-1-1-1-1-1-1-1-1-8-7-1-1-1-1-1-0-----------------------------|
        PM PM PM PM PM      PM PM PM PM

e------------------------------------------------------------|
    B------------------------------------------------------------|
Gtr G------------------9---------9-------------------------------| 2
1+2 D---------6h8-7----7-------8-7-------------------------------|
    A-1-1-1-1----------8-1-1-1-8-8---1-1-1-1-1-1-1111-22-1111-22-|
    D-1-1-1-1----------7-1-1-1-8-7---1-1-1-1-1-1-1111-22-1111-22-|
        PM PM PM      PM PM       PM PM PM PM PM PM PM PM PM

e-------------------------------------------------------------|
    B-------------8h9---------------------------------------------|
Gtr G---------8p6-----9---------9---------------------------------| 4
1+2 D-----------------7-------8-7------------------------7--10--9-|
    A-1-1-1-1---------8-1-1-1-8-8---1-1-1-1-1-1-6--9--7--5--8---7-|
    D-1-1-1-1---------7-1-1-1-8-7---1-1-1-1-1-1-6--9--7-----------|
        PM PM PM      PM PM       PM PM PM PM PM PM PM PM PM  PM

B------------------------------|
Gtr G-------10p9p7-----------------|
1+2 D-1-1-1-------10p9p7-9-6-8-5-7-| 1,3,5,7
    A-1-1-1--------------9-6-8-5-7-|
    D-1-1-1--------------9-6-8-5-7-|
        PM

e----------------------------------|
    B----------------------------------|
Gtr G-------10p9p7---------------------|
 1  D-1-1-1-------10p9p7---------------| 2,6
    A-1-1-1--------------0-9p8---7-6-7-|
    D-1-1-1--------------0-----9-7-6-7-|
        PM

e--------------------------------------------------------------------|
    B--------------------------------------------------------------------|
Gtr G-------10p9p7----------------------11----11-14-11----11-------------|
 1  D-1-1-1-------10p9p7----10-13-10-13----13----------13----13-10-13----| 4
    A-1-1-1--------------12-------------------------------------------12-|
    D-1-1-1--------------------------------------------------------------|
        PM               PM PM PM PM PM PM PM PM PM PM PM PM PM PM PM PM

e----------------------------------------- 4 ------------------------|
    B-----------------------------------13----13-16-13----13-------------|
Gtr G-------10p9p7----------11-14-11-14----14----------14----14-11-14----|
 2  D-1-1-1-------10p9p7-13-------------------------------------------13-| 4
    A-1-1-1--------------------------------------------------------------|
    D-1-1-1--------------------------------------------------------------|
        PM               PM PM PM PM PM PM PM PM PM PM PM PM PM PM PM PM

e------------------------------------------------|
    B------------------------------------------------|
Gtr G-----------------11---11-14-11---11-------------| GRADUALLY SLOW DOWN.
 1  D-----10-13-10-13----13---------13---13-10-13----|
    A--12-----------------------------------------12-| 8
    D------------------------------------------------|
       PM PM PM PM PM PM PM PM PM PM PM PM PM PM PM

e-------------------------------------------------|
    B----------------13----13-16-13----13-------------|
Gtr G----11-14-11-14----14----------14----14-11-14----| GRADUALLY SLOW DOWN.
 2  D-13-------------------------------------------13-|
    A-------------------------------------------------| 8
    D-------------------------------------------------|
      PM PM PM PM PM PM PM PM PM PM PM PM PM PM PM PM

e--------------------------|
    B--------------------------|
Gtr G--------------------------| x4
 1  D-1--(Let ring for 2 bars)-|
    A-1------------------------|
    D-1------------------------|

e---------1,3--------------|---------2,4-------------------|
    B--------------------------|-------------------------------|
Gtr G--------------------------|-------------------------------|
 2  D-1--(Let ring for 2 bars)-|-1-(L R for 2 bars)-PICK SLIDE-|
    A-1------------------------|-1-----------------------------|
    D-1------------------------|-1-----------------------------|

e-12p11-12-13-13-11---------13-13-|
    B--------------------15-15--------|
Gtr G---------------------------------| 1,3
 1  D---------------------------------|
    A---------------------------------|
    D---------------------------------|

e------------------------------------------|
    B------------------------------------------|
Gtr G--------------------------9h10--7777-6666-| 1,3
 2  D-4444-3333-6666-7777-8888-----------------|
    A------------------------------------------|
    D------------------------------------------|
      PM PM PM PM PM PM PM PM        PM PM PM

e-----------------------------------------------------------------|
    B--------------------------------------16161616-15151515-14141414-|
Gtr G-8888-7777-10101010-11111111-14141414----------------------------| 2
 1  D-----------------------------------------------------------------|
    A-----------------------------------------------------------------|
    D-----------------------------------------------------------------|
      PM PM PM PM PM PM PM PM PM PM PM PM PM PM PM PM PM PM PM PM PM

e---------------------------------------------------------|
    B---------------------------------------------------------|
Gtr G------------------------------13131313-12121212-11111111-| 2
 2  D-6666-5555-8888-9999-12121212----------------------------|
    A---------------------------------------------------------|
    D---------------------------------------------------------|
      PM PM PM PM PM PM PM PM PM PM PM PM PM PM PM PM PM PM

e-12p11-12-13-13-13-13-----|
    B--------------------------|
Gtr G--------------------------|
 1  D--------------------------|
    A--------------------------|
    D--------------------------|

e--------------------------|
    B--------------------------|
Gtr G--------------------------|
 2  D-4444-3333-6666-7-13------|
    A--------------------------|
    D--------------------------|

e---------------------------|
    B---------------------------|
Gtr G-7--9--11--12-12-12-12--14-|
1+2 D---------------------------|
    A---------------------------|
    D---------------------------|

--------------------------------------------------------------------------

e-----------------------------------------------------------------|
    B-----------------------------------------------------------------|
Gtr G-7--7--7--7--7--7--7--7--/9-14-14-14-14-14-14-14-14-14-----------|
1+2 D-10-10-10-10-10-10-10-10----------------------------12---5-5-5-5-|
    A-8--8--8--8--8--8--8--8-----13-13-13-13-13-13-13-13-13---5-5-5-5-|
    D---------------------------------------------------------5-5-5-5-|

e-------------------------|
    B-------------------------|
Gtr G------------------8-7-10-|
1+2 D-------------------------|  1,3
    A-1-1-1-1-1-1-1-1--6-6-6--|
    D-1-1-1-1-1-1-1-1---------|

--------------------------------------------------------------------------

e-----------------------------------------------------------------|
    B-----------------------------------------------------------------|
Gtr G-7--7--7--7--7--7--7--7--/9-14-14-14-14-14-14-14-14-14-----------|
 1  D-10-10-10-10-10-10-10-10----------------------------12---5-5-5-5-|
    A-8--8--8--8--8--8--8--8-----13-13-13-13-13-13-13-13-13---5-5-5-5-|
    D---------------------------------------------------------5-5-5-5-|

e-----------------------------------------------------------------|
    B-----------------------------------------------------------------|
Gtr G-7--7--7--7--7--7--7--7--/9-14-14-14-14-14-14-14-14-14-----------|
 2  D-10-10-10-10-10-10-10-10----------------------------12---5-5-5-5-|
    A-8--8--8--8--8--8--8--8-----13-13-13-13-13-13-13-13-13---5-5-5-5-|
    D---------------------------------------------------------5-5-5-5-|

e-------------------------|
    B-------------------------|
Gtr G------------------8-7-10-|
 1  D-------------------------|                 2
    A-1-1-1-1-1-1-1-1--6-6-6--|
    D-1-1-1-1-1-1-1-1---------|

e----------------------------------|
    B----------------------------------|
Gtr G-8-7-8-10-10-10-10-10-10-10-10-10-|
 2  D----------------------------------|
    A-6-6-6-6--6--6--6--6--6--6--6--6--|
    D----------------------------------|

----------------------------------------------------------------------------

e-----------------------------------------------------------------|
    B-----------------------------------------------------------------|
Gtr G-7--7--7--7--7--7--7--7--/9-14-14-14-14-14-14-14-14-14-----------|
 1  D-10-10-10-10-10-10-10-10----------------------------12---5-5-5-5-|
    A-8--8--8--8--8--8--8--8-----13-13-13-13-13-13-13-13-13---5-5-5-5-|
    D---------------------------------------------------------5-5-5-5-|

e-----------------------------------------------------------------|
    B-----------------------------------------------------------------|
Gtr G-7--7--7--7--7--7--7--7-----14-12----15-15-15-15----14-----------|
 2  D-10-10-10-10-10-10-10-10----------------------------12---5-5-5-5-|
    A-8--8--8--8--8--8--8--8-----13-13----13-13-13-13----13---5-5-5-5-|
    D---------------------------------------------------------5-5-5-5-|

e------------10----1010101010101010-|
    B---------10----10------------------|
Gtr G-----------------------------------|
 1  D-1---------------------------------|     4
    A-1-(let ring)----------------------|
    D-1---------------------------------|

e--------------|
    B--------------|
Gtr G--------------|
 2  D-1------------|
    A-1-(Let ring)-|
    D-1------------|

------------------------------------------------------------------------------|
    e-------------------------------------------------------------------------|
    B-------------------------------------------------------------------------|
Gtr G------------------------9h10p9-8p7---------------------------------------|
1+2 D----------7--8p7----------------------------7--8p7-----------------------|
    A-1-1-1-1--7------1-1-1-1-----------1-1-1-1--7----------------------------|
    D-1-1-1-1--7------1-1-1-1-----------1-1-1-1--7----------------------------|
     PM PM PM          PM PM             PM PM

e-------------------------|
    B-------------------------|
Gtr G-------------------------|
1+2 D-11-11-11-10-16-16-16-15-|
    A-------------------------|
    D-------------------------|

e-----------------|
    B-----------------|
Gtr G-----------------| x3
1+2 D----------7--8p7-|
    A-1-1-1-1--7------|
    D-1-1-1-1--7------|
       PM PM

e---------------|
    B---------------|
Gtr G----BD---------|
1+2 D----7------8-7-|
    A-1-----1---8-7-|
    D-1-----1---8-7-|
      PM    PM

e------------------------------------------------|
    B------------------------------------------------|
Gtr G-------------------------9tr10-8----------------|
1+2 D----------7--8p7-------------------------7--8P7-|
    A-1-1-1-1--7------1-1-1-1--------1-1-1-1--7------|
    D-1-1-1-1--7------1-1-1-1--------1-1-1-1--7------|
      PM  PM          PM PM          PM PM

e-------------------------|
    B-------------------------|
Gtr G-------------------------|
1+2 D-11-11-11-10-16-16-16-15-|
    A-------------------------|
    D-------------------------|

e-------------------|
    B-------------------|
Gtr G-14-14-14-14-14-14-|
1+2 D-------------------|
    A-------------------|
    D-------------------|

e---------------------------------------|
    B-----------------------------------------|
Gtr G-11-11-11-10-10-10-10-10-10-10-10-10-----|
 1  D-13-13-13-13-13-13-13-13-13-13-13-13-----|
    A-----------------------------------------|
    D-----------------------------------------|
      PM PM PM PM PM PM PM PM PM PM PM PM

e-------------------|------------------|---------------|------------|
    B-------------------|--------9h11-12h14|---------------|------------|
Gtr G--11-11-11-10-10-10|--10h11-----------|-11-11-11-10-10|-10-10-10-10|
 1  D--13-13-13-13-13-13|------------------|-13-13-13-13-13|-13-13-13-13|
    A-------------------|------------------|---------------|------------|
    D-------------------|------------------|---------------|------------|
      PM PM PM PM PM PM PM PM PM PM PM PM   PM PM PM PM PM PM

e------------------|------------------|---------------|-------------|
    B------------------|------------------|---------------|-------------|
Gtr G4---4---4---4---4-|-3---3---3---3----|-8---8---8---8-|-6---6--6--6-|
 2  D------------------|------------------|---------------|-------------|
    A2---2---2---2---2-|-1---1---1---1----|-6---6---6---6-|-4---4--4--4-|
    D------------------|------------------|---------------|-------------|

e---------------|----------------|------------------\----------------|
    B---------------|-14-12-11h12p11-|-14-12-11-12-14-12|--14-12p11---16-|
Gtr G-11-11-11-10-10|----------------|------------------|----------------|
 1  D-13-13-13-13-13|----------------|------------------|----------------|
    A---------------|----------------|------------------|----------------|
    D---------------|----------------|------------------|----------------|

e---------------|----------------|------------------|-----------------|
    B---------------|----------------|------------------|-----------------|
Gtr G-4---4---4---4-|-3---3---3---3--|-8---8---8---8----|--6---6---6---6--|
 2  D---------------|----------------|------------------|-----------------|
    A-2---2---2---2-|-1---1---1---1--|-6---6---6---6----|--4---4---4---4--|
    D---------------|----------------|------------------|-----------------|

e---------------|----------------------|------------------|------------|
    B-12-11h12-11h12|--14h16h18p16p14------|------------------|------------|
Gtr G---------------|-----------------13-11|-11-11-11-10-10-10|-6--6--6----|
 1  D---------------|----------------------|-13-13-13-13-13-13|------------|
    A---------------|----------------------|------------------|------------|
    D---------------|----------------------|------------------|------------|

e---------------|----------------------|------------------|------------|
    B---------------|----------------------|------------------|------------|
Gtr G-4---4---4---4-|-13---13---13---13----|-8----8----8----8-|-6--6--6--6-|
 2  D---------------|----------------------|------------------|------------|
    A-2---2---2---2-|-11---11---11---11----|-6----6----6----6-|-4--4--4--4-|
    D---------------|----------------------|------------------|------------|

e---------------------------------------------------|
    B-----------------------14-12-----------------------|
Gtr G-11-11-11-10-10-10------------15-(let ring) /21\15-|
 1  D-13-13-13-13-13-13--0------------------------------|
    A--------------------0------------------------------|
    D--------------------0------------------------------|
                         PM

e-------------------------------------------|
    B-----------------------14-12---------------|
Gtr G-11-11-11-10-10-10-------------------------|
 2  D-13-13-13-13-13-13------------1------------|
    A------------------------------1-(Let ring)-|
    D------------------------------1------------|

END
 
 
Cave In - Crossbearer :: indexed at Ultimate Guitar.
Crossbearer tabs @ 911Tabs
People who played Cave In - Crossbearer also played these songs by Cave In:
Anchor Tab, Anchor Tab, New Moon Tab, Rubber And Glue Tab, Come Into Your Own Tab, Inspire Tab

Quick tip, so you can enjoy Crossbearer even more:

If you don't really know how to deal with "Absus4" chord and his equally confusing brothers, just put the mouse cursor over them and you will be shown a helpful chord diagram.

Show us your talent, perform Crossbearer!

Here you can post a video or audio performance. Tell me more ...
Where can we find your performance? Tell me more ...
Your comment:
Please, log in to post your performance.