Artists by letter: A B C D E F G H I J K L M N O P Q R S T U V W X Y Z 0-9

 
Capsize
Pretty sure cave in play in Eb, but I tabbed it in D anyway...

e-------------------------------|
    B----------------8(FEEDBACK)----|
GTR G--15 (FEEDBACK)----------------|
 1  D-------------------------------|
    A-------------------------------|
    D-------------------------------|

e-------------------------------|
    B-------------------------------|
GTR G-RANDOM CLINKING---------------|
 2  D-------------------------------|
    A-------------------------------|
    D-------------------------------|

e-------------------------------|
    B-------------------------------|
GTR G-------6-----------------------|
1+2 D-2-1---6--(LET RING)-----------|
    A-2-1---4-----------------------|
    D-2-1---------------------------|

e------|----------------|----------------------|
    B------|------x7--------|----------------------|
GTR G-13-13|----------------|-(SILENT ON 8th TIME)-|
 1  D-11-11|-7-7-7-7-7-7-7-7|----------------------|
    A-12-12|-7-7-7-7-7-7-7-7|----------------------|
    D------|----------------|----------------------|
             PM PM PM PM PM

e------|-1-|--------|-3-|-9------|-5-|------|-7-|--------------12-11-|
    B------|---|-5-4-9-9|---|---9----|---|-5-4-9|---|-----------10-------|
GTR G-13-13|---|--------|---|-----9/8|---|------|---|-10-9-11------------|
 2  D-11-11|---|--------|---|--------|---|------|---|---------9----------|
    A-12-12|---|----2---|---|---4----|---|--6---|---|--------------------|
    D------|---|--------|---|--------|---|------|---|-------8------------|

e----------|------1-------|---------2----------|----3----|
    B----------|--------------|--------------------|---------|
GTR G----------|--------------|-------13-----------|---------|
1+2 D-2-2-2-2-2|-1-2p1p0------|-1-----0--(LET RING)|---------|
    A-2-2-2-2-2|-1-------2p1p0|-1-0-0--------------|-1-1-1-1-|
    D-2-2-2-2-2|-1------------|-1-0-0--------------|-1-1-1-1-|
                                  PM                 PM PM PM

e---------------------------|
    B---------------------------|
GTR G---------------------------|
1+2 D-2-2-2/14------------------|
    A-2-2-2/14--1-1-1-1-1-1-1-1-|
    D-2-2-2/14--1-1-1-1-1-1-1-1-|
                PM PM PM PM PM

e-1,2,3,4,5,7|-----------6----------|
    B------------|----------------------|
GTR G------------|----------------------|
 1  D-2-2-2-2-2-1|-2-2-2-2-2-1--1-1-1-1-|
    A-2-2-2-2-2-1|-2-2-2-2-2-1--1-1-1-1-|
    D-2-2-2-2-2-1|-2-2-2-2-2-1--1-1-1-1-|

e-1,2,3,5,7----0-----------|--------------0-----|------6------|
    B--------------0-(LET RING)|--------------0-----|-------------|
GTR G--------------0-----------|--------------0-----|-------------|
 2  D-----------1--------------|-2-2h4p2------1-(LR)|-------------|
    A-----------1--------------|-2-2h4p2-1h2--1-----|-210000210000|
    D-----------1--------------|-2-2h4p2------1-----|-------------|
                                                      PM PM PM PM

e---------------------------|
    B---------------------------|
GTR G--------------13-----------|
1+2 D-2-2-2-2-2-1-----(LET RING)|
    A-2-2-2-2-2-1--11-----------|
    D-2-2-2-2-2-1---------------|

e---------------------|
    B---------------------|
GTR G-4-4-4-4-4-3-3-3-----| x3
 1  D-2-2-2-2-2-1-1-1-(LR)|
    A-2-2-2-2-2-1-1-1-----|
    D-2-2-2-2-2-1-1-1-----|

e----------------------|
    B----------------------|
GTR G-4-4-4-4-4-3-3-13-----| x3
 2  D-2-2-2-2-2-1-1---(LR)-|
    A-2-2-2-2-2-1-1-11-----|
    D-2-2-2-2-2-1-1--------|

e--------------------------|
    B-------------------0------|
GTR G-4-4-4-4-4----------------|
1+2 D-2-2-2-2-2-1-------11-(LR)|
    A-2-2-2-2-2-1---0---12-----|
    D-2-2-2-2-2-1---0----------|
                    PM

e------------x3.5--------------|---1--|--------2-------|
    B------------------------------|------|----------------|
GTR G-12-12-12-12-12-12-12-12-12-12|-12/18|-12-12-12-12-12-|
 1  D------------------------------|------|----------------|
    A-11-11-11-11-11-11-11-11-11-11|------|-11-11-11-11-11-|
    D------------------------------|------|----------------|

e------------x8----------------|
    B------------------------------|
GTR G-12-12-12-12-12-12-12-12-12-12|
 1  D------------------------------|
    A-11-11-11-11-11-11-11-11-11-11|
    D------------------------------|

e-------------------------------------------------------------|
    B-------------------------------------------------------------|
GTR G-12-12-12-12-12-12-12-12-12-12-13-13-13-13-13-13-13-13-13-13-|
1+2 D-------------------------------------------------------------|
    A-11-11-11-11-11-11-11-11-11-11-11-11-11-11-11-11-11-11-11-11-|
    D-------------------------------------------------------------|

e-------------------------------------------------------------|
    B-------------------------------------------------------------|
GTR G-12-12-12-12-12-12-12-12-12-12-12-12-12-12-12-12-12-12-12-12-|
1+2 D-------------------------------------------------------------|
    A-11-11-11-11-11-11-11-11-11-11-11-11-11-11-11-11-11-11-11-11-|
    D-------------------------------------------------------------|

e----------------|
    B----------------|
GTR G-13--15--17--19-|
 1  D----------------|
    A-11--13--15--17-|
    D----------------|

e---------------------|
    B---------------------|
GTR G-----13--------------|
 2  D-------------6p5 1/6-|
    A---------------------|
    D---------------------|

e----|----------------|----|---|----|-------------|
    B-4p0|-4/6-7p0h6-7p0h6|-4p0|-4^|-4p0|-7p0h6--7p0h6|
GTR G----|----------------|----|---|----|-------------|
 1  D----|----------------|----|---|----|-------------|
    A-x11|----------------|-x7-|---|--x4|-------------|
    D----|----------------|----|---|----|-------------|

e--------------------------------------------------------------|
    B-4p0-4p0-4p0-4p0-4p0-4p0-4p0-4p0-4p0-4p0-4p0-4p0-7p0h6--7p0h6-|
GTR G--------------------------------------------------------------|
 1  D--------------------------------------------------------------|
    A----------------------------x2--------------------------------|
    D--------------------------------------------------------------|

e--------------------------------------------------------------|
    B--------------------------------------------------------------|
GTR G--------------------------------------------------------------|
 2  D--------------------------------------------------------------|
    A-1-1---------1-1-------------1-1-----------------1-1--1-1--1-1|
    D-1-1---------1-1-------------1-1-----------------1-1--1-1--1-1|
      PM          PM              PM                  PM PM PM PM

e--------------------|-----------------------|
    B--------------------|----------------11--11-|
GTR G-9-9-9-9-9-8-8-8-8-8|-9-9-9-9-9-8-8---------| x3
1+2 D--------------------|----------------8---8--|
    A-7-7-7-7-7-6-6-6-6-6|-7-7-7-7-7-6-6---------|
    D--------------------|------------------|

e--------------------|--------------|
    B--------------------|--------------|
GTR G-9-9-9-9-9-8-8-8-8-8|-9-9-9-9------| 
1+2 D--------------------|--------------|
    A-7-7-7-7-7-6-6-6-6-6|-7-7-7-7--1-1-|
    D--------------------|----------1-1-|
                                    PM

e-------------------------------|
    B-------------------------------|
GTR G-------------------------------|
1+2 D-1-1-1-2-2-1-1-1-4-4-3-3-3-5-5-| x4
    A-1-1-1-2-2-1-1-1-4-4-3-3-3-5-5-|
    D-1-1-1-2-2-1-1-1-4-4-3-3-3-5-5-|

e-------------------------------|
    B-------------------------------|
GTR G-------------------------------|
 1  D-1-1-1-2-2-1-1-1-4-4-3-3-3-5-5-| 
    A-1-1-1-2-2-1-1-1-4-4-3-3-3-5-5-|
    D-1-1-1-2-2-1-1-1-4-4-3-3-3-5-5-|

e------------------------------------|
    B------------------------------------|
GTR G-3-3-3--4-4--3-3-3--6-6--5-5-5--7-7-|
 2  D-1-1-1-------1-1-1--4-4--3-3-3--5-5-|
    A-1-1-1--2-2--3-3-3--4-4--3-3-3--6-6-|
    D-1-1-1--1-1--1-1-1--4-4--3-3-3--5-5-|

e-------------------------------------------------------------|
    B-------------------------------------------------------------|
GTR G-13--15--1717171717171717-191919191919-15/17-17-17--17/19-19-|
1+2 D-------------------------------------------------------------|
    A-11--13--1515151515151515-171717171717-----------------------|
    D-------------------------------------------------------------|

e-----------------------------------|
    B-----------------------------------|
GTR G-3-3-3------3-3-3-------5-5-5--7-7-| x3
 1  D-1-1-1------1-1-1-------3-3-3--5-5-|
    A-1-1-1------3-3-3-------3-3-3--6-6-|
    D-1-1-1------1-1-1-------3-3-3--5-5-|

e-----------------------------------|
    B-----------------------------------|
GTR G-3-3-3------3-3-3-------5-5-5--7-7-| 
 1  D-1-1-1------1-1-1-------3-3-3--5-5-|
    A-1-1-1------3-3-3-------3-3-3--6-6-|
    D-1-1-1------1-1-1-------3-3-3--5-5-|

e-----------------------------------|
    B-----------------------------------|
GTR G-------4-4--------6-6--------------|
 2  D------------------4-4--------------|
    A-------2-2--------4-4--------------|
    D-------1-1--------4-4--------------|

e----------------------------|
    B----------------------------|
GTR G-8-8-8-8-8-8-8-8--8/10/8--8-| x4
1+2 D----------------------------|
    A-6-6-6-6-6-6-6-6----------6-|
    D----------------------------|

e-------x2-------|---------------------|
    B----------------|---------------------|
GTR G-8-8-8-8-8-8-8-8|-7-7-7-7-7-7-8/10/12-|
1+2 D----------------|---------8-8---------|
    A-6-6-6-6-6-6-6-6|-6-6-6-6-6-6---------|
    D----------------|---------------------|

e----------x2---------------|----------------------------|
    B---------------------------|----------------------------|
GTR G-12-12-12-12-12-12-12-12-12|-10-10-10-10-10-10--10\8/12-|
1+2 D---------------------------|-------------12-12----------|
    A-10-10-10-10-10-10-10-10-10|-10-10-10-10-10-10----------|
    D---------------------------|----------------------------|

e--------x2--------|------------------------------------------------|
    B------------------|-11-11-11-11------------------------------------|
GTR G-1212121212121212-|-------------12-12-12-12-10-10-10-10-10-10-10-10|
1+2 D------------------|-------------------------------------12-12-12-12|
    A-1010101010101010-|-10-10-10-10-10-10-10-10-10-10-10-10-10-10-10-10|
    D------------------|------------------------------------------------|

e-------------------------------------|
    B-------------------------------------|
GTR G-12-------------------10/12/15\13\12-|
 1  D-------------------------------------|
    A-------------------------------------|
    D-------------------------------------|

e-------------------------------------|
    B-------------------------------------|
GTR G-------------------------------------|
 2  D-------------------------------------|
    A-8\6\5/6/8\6/8/10\8\6/8/10\8\6\5-1-1-|
    D-------------------------------------|

END

any corrections / suggestions please email [email protected]
 
 
Cave In - Capsize :: indexed at Ultimate Guitar.
Capsize tabs @ 911Tabs
People who played Cave In - Capsize also played these songs by Cave In:
Anchor Tab, Anchor Tab, New Moon Tab, Rubber And Glue Tab, Come Into Your Own Tab, Inspire Tab

Quick tip, so you can enjoy Capsize even more:

Try out the AutoScroller option ... It scrolls the page for you, so you can totally focus on nailing that solo. You can choose among different speeds using your mouse or your keyboard (keys 0, 1, 2 and 3).

Show us your talent, perform Capsize!

Here you can post a video or audio performance. Tell me more ...
Where can we find your performance? Tell me more ...
Your comment:
Please, log in to post your performance.