Artists by letter: A B C D E F G H I J K L M N O P Q R S T U V W X Y Z 0-9

 
Thrashard
D.R.I.
Thrashard
Thrash Zone
1989

E standard

Tabbed by Thierry Almeida

A

Intro 4x

e|----------------------------------------------|
B|----------------------------------------------|
G|----------------------------------------------|
D|----------------------------------------------|
A|------------------6---------------------------|
E|33-5-33-6-33-5-33-4---------------------------|

B

verse / a lot of times

e|--------------------|--------------------------|
B|--------------------|--------------------------|
G|--------------------|--------------------------|
D|--------------------|--------------------------|
A|--------------------|-5\6-6--------------------|
E|33-5-33-6-33-5-33-4-|-3\4-4--------------------|

C

"in the pit in the pit in the pit in the pit!"

e|----------------------------------------------|
B|----------------------------------------------|
G|----------------------------------------------|
D|-------------5-5-5----------------------------|
A|-------------5-5-5----------------------------|
E|334334334334-3-3-3----------------------------|

D

4x "thrashing and slaming..."

e|----------------------------------------------|
B|----------------------------------------------|
G|----------------------------------------------|
D|----------------------------------------------|
A|-----5----7------5----8------5----7------8888-|
E|0000-3-00-5-0000-3-00-6-0000-3-00-5-0000-6666-|

E

e|----------------------------------------------|
B|----------------------------------------------|
G|7----9----------------7----7------------------|
D|5----7------5/7/8\7\5-5----5------------------|
A|---------------------------------8888---------|
E|--00---0000-------------00--0000-6666...------|

F

 a lot of times / "guitar seems so fucking loud..."

e|---------|-------------------------------------|
B|---------|-------------------------------------|
G|4--5--7--|-9-7-8-------------------------------|
D|4--5--7--|-9-7-8-------------------------------|
A|2--3--5--|-7-5-6-------------------------------|
E|---------|-------------------------------------|

G

     2x      | 2x

e|-----------|-----------------------------------|
B|-----------|-----------------------------------|
G|-----------|-----------------------------------|
D|-----------|----------9----9----9--9-----------|
A|5----5-----|5----5----7----7----7--7-----------|
E|3-00-3-00..|3-00-3-00---00---00--0-------------|

H
     1x
e|----------------------------------------------|
B|----------------------------------------------|
G|7--9--7-10--9--7-7--9--7--10-9---9~-----------|
D|5--7--5-8---7--5-5--7--5-------7--------------|
A|----------------------------------------------|
E|-00-00-0--00-00-0-00-00-----------------------|

I

  2x

e|----------------------------------------------|
B|----------------------------------------------|
G|----------------------------------------------|
D|----------------------------------------------|
A|----------------------------------------------|
E|3-00-5-00-3-00-6-00-5-00-3-0-3----------------|

J

4x

e|----------------------------------------------|
B|----------------------------------------------|
G|----------------------------------------------|
D|5----7----5----8----7----5---5----------------|
A|5----7----5----8----7----5---5----------------|
E|3-00-5-00-3-00-6-00-5-00-3-0-3----------------|

K

3x

e|----------------------------------------------|
B|----------------------------------------------|
G|----------------------------------------------|
D|8----7----6----5----4----3--------------------|
A|6----5----4----3----2----1----5--222----------|
E|--00---00---00---00---00---00-3--000----------|

then this part here (below) at last and come back to the riff above again

playing it 2 times and finishing it in the last time with an open E. then the

song starts again with the first riff (A) and then its variation (B) and

finally ends.

e|----------------------------------------------|
B|----------------------------------------------|
G|----------------------------------------------|
D|3----4----5----6----7----8----9---------------|
A|1----2----3----4----5----6----7---------------|
E|--00---00---00---00---00---00-----------------|

Didn't put the palm mutes. Listening to the song you'll find 'em.
 
 
D.R.I. - Thrashard :: indexed at Ultimate Guitar.
Thrashard tabs @ 911Tabs
People who played D.R.I. - Thrashard also played these songs by D.R.I.:
Couch Slouch Tab, Idky Tab, Thrashard Tab, Karma Tab, Snap Tab, Happy Happy Joy Joy Tab

Quick tip, so you can enjoy Thrashard even more:

You might want to transpose the song if it is too high or too low for you to sing. Just click the desired option while playing a song and all the chords will automatically be transponded into a new key.

Show us your talent, perform Thrashard!

Here you can post a video or audio performance. Tell me more ...
Where can we find your performance? Tell me more ...
Your comment:
Please, log in to post your performance.