Artists by letter: A B C D E F G H I J K L M N O P Q R S T U V W X Y Z 0-9

 
Prisoner
-------------------------------------------------------------------------------
The Prisoner - D.O.A.
Dawning Of A New Error
-------------------------------------------------------------------------------
Tabbed by: axeslash
Email: [email protected]

Tuning: Guitar 1 - EADGBE
        Guitar 2 - EADGBE

Intro:
Guitar 1:
e|-------------------------------------------------------|
B|-------------------------------------------------------|
G|-------------------------------------------------------|
D|-7-x-7--7-7-7-7-x-7--7-7-7-----------------------------|
A|-5-x-5--5-5-5-5-x-5--5-5-5-8--8-8--8-8-8-5--5-5--5-5-5-|
E|---------------------------6--6-6--6-6-6-3--3-3--3-3-3-|

Guitar 1:
e|-------------------------------------------------------------|
B|-------------------------------------------------------------|
G|-------------------------------------------------------------|
D|-7-x-7--7-7-7-7-x-7--7-7-7---------------12--12-12--12-12-12-|
A|-5-x-5--5-5-5-5-x-5--5-5-5-8--8-8--8-8-8-10--10-10--10-10-10-|
E|---------------------------6--6-6--6-6-6---------------------|

Guitar 1:
e|-------------------------------------------------------|
B|-------------------------------------------------------|
G|-------------------------------------------------------|
D|-7-x-7--7-7-7-7-x-7--7-7-7-----------------------------|
A|-5-x-5--5-5-5-5-x-5--5-5-5-8--8-8--8-8-8-5--5-5--5-5-5-|
E|---------------------------6--6-6--6-6-6-3--3-3--3-3-3-|
Guitar 2:
e|----------------------------------------------|
B|/15-15---15--15^-15-15^-----------------------|
G|/14-14---14--14^-12-14^-15^--15^--12-12-12-12-|
D|------------------------15^--15^--12-12-12-12-|
A|----------------------------------------------|
E|----------------------------------------------|

Guitar 1:
e|-------------------------------------------------------------|
B|-------------------------------------------------------------|
G|-------------------------------------------------------------|
D|-7-x-7--7-7-7-7-x-7--7-7-7---------------12--12-12--12-12-12-|
A|-5-x-5--5-5-5-5-x-5--5-5-5-8--8-8--8-8-8-10--10-10--10-10-10-|
E|---------------------------6--6-6--6-6-6---------------------|
Guitar 2:
e|------------------------------------------------------|
e|----------------------------------------------|
B|/15-15---15--15^-15-15^-----------------------|
G|/14-14---14--14^-12-14^-15^--15^--12-12-12-12-|
D|------------------------15^--15^--12-12-12-12-|
A|----------------------------------------------|
E|----------------------------------------------|
Verse:
Guitar 1 + 2:
e|------------------|
B|-(palm muted)-----|
G|------------------|
D|-----3-3---5-5--5-|
A|-5-5-1-1-3-3-3--3-|
E|-3-3-----1--------| x8
  
Chorus:
Guitar 1:
e|-------------------------------------------------------|
B|-------------------------------------------------------|
G|-------------------------------------------------------|
D|-7-x-7--7-7-7-7-x-7--7-7-7-----------------------------|
A|-5-x-5--5-5-5-5-x-5--5-5-5-8--8-8--8-8-8-5--5-5--5-5-5-|
E|---------------------------6--6-6--6-6-6-3--3-3--3-3-3-|
Guitar 2:
e|----------------------------------------------|
B|/15-15---15--15^-15-15^-----------------------|
G|/14-14---14--14^-12-14^-15^--15^--12-12-12-12-|
D|------------------------15^--15^--12-12-12-12-|
A|----------------------------------------------|
E|----------------------------------------------|

Guitar 1:
e|-------------------------------------------------------------|
B|-------------------------------------------------------------|
G|-------------------------------------------------------------|
D|-7-x-7--7-7-7-7-x-7--7-7-7---------------12--12-12--12-12-12-|
A|-5-x-5--5-5-5-5-x-5--5-5-5-8--8-8--8-8-8-10--10-10--10-10-10-|
E|---------------------------6--6-6--6-6-6---------------------|
Guitar 2:
e|------------------------------------------------------|
B|/15-15---15--15-15-15---------------------------------|
G|/14-14---14--14-12-14-15--15-15--15-12--12-12--12--12-|
D|----------------------15--15-15--15-12--12-12--12--12-|
A|------------------------------------------------------|
E|------------------------------------------------------|

Guitar 1:
e|-------------------------------------------------------|
B|-------------------------------------------------------|
G|-------------------------------------------------------|
D|-7-x-7--7-7-7-7-x-7--7-7-7-----------------------------|
A|-5-x-5--5-5-5-5-x-5--5-5-5-8--8-8--8-8-8-5--5-5--5-5-5-|
E|---------------------------6--6-6--6-6-6-3--3-3--3-3-3-|
Guitar 2:
e|----------------------------------------------|
B|/15-15---15--15^-15-15^-----------------------|
G|/14-14---14--14^-12-14^-15^--15^--12-12-12-12-|
D|------------------------15^--15^--12-12-12-12-|
A|----------------------------------------------|
E|----------------------------------------------|

Guitar 1:
e|-------------------------------------------------------------|
B|-------------------------------------------------------------|
G|-------------------------------------------------------------|
D|-7-x-7--7-7-7-7-x-7--7-7-7---------------12--12-12--12-12-12-|
A|-5-x-5--5-5-5-5-x-5--5-5-5-8--8-8--8-8-8-10--10-10--10-10-10-|
E|---------------------------6--6-6--6-6-6---------------------|
Guitar 2:
e|----------------------------------------------|
B|/15-15---15--15^-15-15^-----------------------|
G|/14-14---14--14^-12-14^-15^--15^--12-12-12-12-|
D|------------------------15^--15^--12-12-12-12-|
A|----------------------------------------------|
E|----------------------------------------------|
Verse
Guitar 1 + 2:
e|------------------|
B|-(palm muted)-----|
G|------------------|
D|-----3-3---5-5--5-|
A|-5-5-1-1-3-3-3--3-|
E|-3-3-----1--------| x8

Chorus
Guitar 1:
e|-------------------------------------------------------|
B|-------------------------------------------------------|
G|-------------------------------------------------------|
D|-7-x-7--7-7-7-7-x-7--7-7-7-----------------------------|
A|-5-x-5--5-5-5-5-x-5--5-5-5-8--8-8--8-8-8-5--5-5--5-5-5-|
E|---------------------------6--6-6--6-6-6-3--3-3--3-3-3-|
Guitar 2:
e|------------------------------------------------------|
B|/15-15---15--15-15-15---------------------------------|
G|/14-14---14--14-12-14-15--15-15--15-12--12-12--12--12-|
D|----------------------15--15-15--15-12--12-12--12--12-|
A|------------------------------------------------------|
E|------------------------------------------------------|

Guitar 1:
e|-------------------------------------------------------------|
B|-------------------------------------------------------------|
G|-------------------------------------------------------------|
D|-7-x-7--7-7-7-7-x-7--7-7-7---------------12--12-12--12-12-12-|
A|-5-x-5--5-5-5-5-x-5--5-5-5-8--8-8--8-8-8-10--10-10--10-10-10-|
E|---------------------------6--6-6--6-6-6---------------------|
Guitar 2:
e|------------------------------------------------------|
B|/15-15---15--15-15-15---------------------------------|
G|/14-14---14--14-12-14-15--15-15--15-12--12-12--12--12-|
D|----------------------15--15-15--15-12--12-12--12--12-|
A|------------------------------------------------------|
E|------------------------------------------------------|

Bridge:
Guitar 1:
e|-------------------------------------------------------------------------------------|
B|-------------------------------------------------------------------------------------|
G|-------------------------------------------------------------------------------------|
D|-7--7-7--7-7-7-7-8----8------7--7-7--7-7-7-7-8----8------7--7-7--7-7-7-7-8----8------|
A|-7--7-7--7-7-7-7-8----8------7--7-7--7-7-7-7-8----8------7--7-7--7-7-7-7-8----8------|
E|-5--5-5--5-5-5-5-6----6------5--5-5--5-5-5-5-6----6------5--5-5--5-5-5-5-6----6------|
Guitar 2:
e|-------------------------------------------------------------------------------------|
B|-------------------------------------------------------------------------------------|
G|-------------------------------------------------------------------------------------|
D|-14^--14^--14-14-15^--15^----14^--14^--14-14-15^--15^----14^--14^--14-14-15^--15^----|
A|-------------------------------------------------------------------------------------|
E|-------------------------------------------------------------------------------------|

Guitar 1:
e|-------------------------------|
B|-------------------------------|
G|-------------------------------|
D|-7--7-7--7-7-7-7-8----8------5-|
A|-7--7-7--7-7-7-7-8----8------5-|
E|-5--5-5--5-5-5-5-6----6------3-|
Guitar 2:
e|---------------------------------------------------------------------------|
B|-----------------18^w-18^w-------------------------------------------------|
G|---------------------------------------------------------------------------|
D|-14^--14^--14-14-----------------------------------------------------------|
A|---------------------------------------------------------------------------|
E|---------------------------------------------------------------------------|

Verse
Guitar 1 + 2:
e|------------------|
B|-(palm muted)-----|
G|------------------|
D|-----3-3---5-5--5-|
A|-5-5-1-1-3-3-3--3-|
E|-3-3-----1--------| x8

Chorus:
Guitar 1:
e|-------------------------------------------------------|
B|-------------------------------------------------------|
G|-------------------------------------------------------|
D|-7-x-7--7-7-7-7-x-7--7-7-7-----------------------------|
A|-5-x-5--5-5-5-5-x-5--5-5-5-8--8-8--8-8-8-5--5-5--5-5-5-|
E|---------------------------6--6-6--6-6-6-3--3-3--3-3-3-|
Guitar 2:
e|------------------------------------------------------|
B|/15-15---15--15-15-15---------------------------------|
G|/14-14---14--14-12-14-15--15-15--15-12--12-12--12--12-|
D|----------------------15--15-15--15-12--12-12--12--12-|
A|------------------------------------------------------|
E|------------------------------------------------------|

Guitar 1:
e|-------------------------------------------------------------|
B|-------------------------------------------------------------|
G|-------------------------------------------------------------|
D|-7-x-7--7-7-7-7-x-7--7-7-7---------------12--12-12--12-12-12-|
A|-5-x-5--5-5-5-5-x-5--5-5-5-8--8-8--8-8-8-10--10-10--10-10-10-|
E|---------------------------6--6-6--6-6-6---------------------|
Guitar 2:
e|------------------------------------13--13-13--13--13-|
B|/15-15---15--15-15-15---------------13--13-13--13--13-|
G|/14-14---14--14-12-14-15--15-15--15-------------------|
D|----------------------15--15-15--15-------------------|
A|------------------------------------------------------|
E|------------------------------------------------------|

Guitar 1:
e|-------------------------------------------------------|
B|-------------------------------------------------------|
G|-------------------------------------------------------|
D|-7-x-7--7-7-7-7-x-7--7-7-7-----------------------------|
A|-5-x-5--5-5-5-5-x-5--5-5-5-8--8-8--8-8-8-5--5-5--5-5-5-|
E|---------------------------6--6-6--6-6-6-3--3-3--3-3-3-|
Guitar 2:
e|------------------------------------------------------|
B|/15-15---15--15-15-15---------------------------------|
G|/14-14---14--14-12-14-15--15-15--15-12--12-12--12--12-|
D|----------------------15--15-15--15-12--12-12--12--12-|
A|------------------------------------------------------|
E|------------------------------------------------------|

Guitar 1:
e|-------------------------------------------------------------|
B|-------------------------------------------------------------|
G|-------------------------------------------------------------|
D|-7-x-7--7-7-7-7-x-7--7-7-7---------------12--12-12--12-12-12-|
A|-5-x-5--5-5-5-5-x-5--5-5-5-8--8-8--8-8-8-10--10-10--10-10-10-|
E|---------------------------6--6-6--6-6-6---------------------|
Guitar 2:
e|------------------------------------------------------|
B|/15-15---15--15-15-15---------------------------------|
G|/14-14---14--14-12-14-15--15-15--15-12--12-12--12--12-|
D|----------------------15--15-15--15-12--12-12--12--12-|
A|------------------------------------------------------|
E|------------------------------------------------------|

Guitar 1:
e|-------------------------------------------------------|
B|-------------------------------------------------------|
G|-------------------------------------------------------|
D|-7-x-7--7-7-7-7-x-7--7-7-7-----------------------------|
A|-5-x-5--5-5-5-5-x-5--5-5-5-8--8-8--8-8-8-5--5-5--5-5-5-|
E|---------------------------6--6-6--6-6-6-3--3-3--3-3-3-|
Guitar 2:
e|------------------------------------------------------|
B|/15-15---15--15-15-15---------------------------------|
G|/14-14---14--14-12-14-15--15-15--15-12--12-12--12--12-|
D|----------------------15--15-15--15-12--12-12--12--12-|
A|------------------------------------------------------|
E|------------------------------------------------------|

Guitar 1:
e|-------------------------------------------------------------|
B|-------------------------------------------------------------|
G|-------------------------------------------------------------|
D|-7-x-7--7-7-7-7-x-7--7-7-7---------------12--12-12--12-12-12-|
A|-5-x-5--5-5-5-5-x-5--5-5-5-8--8-8--8-8-8-10--10-10--10-10-10-|
E|---------------------------6--6-6--6-6-6---------------------|
Guitar 2:
e|------------------------------------13--13-13--13--13-|
B|/15-15---15--15-15-15---------------13--13-13--13--13-|
G|/14-14---14--14-12-14-15--15-15--15-------------------|
D|----------------------15--15-15--15-------------------|
A|------------------------------------------------------|
E|------------------------------------------------------|

Guitar 1:
e|---------------------------------------------------|
B|---------------------------------------------------|
G|---------------------------------------------------|
D|-7--7--7--7-----------------7--7--7--7-------------|
A|-5--5--5--5--8--8--8--8--8--5--5--5--5--8--8--8--8-|
E|-------------6--6--6--6--6--------------6--6--6--6-|
Guitar 2:                                             
e|---------------------------------------------------|
B|---------------------------------------------------|
G|-7--------------------------7----------------------|
D|-7-----------8--------------7-----------8----------|
A|-5-----------8--------------5-----------8----------|
E|-------------6--------------------------6----------|

Guitars 1 + 2:
e|----------------------------------------------------------------------------|
B|----------------------------------------------------------------------------|
G|----------------------------------------------------------------------------|
D|-7-7-7-7-7-7-7-7-----------------7-7-7-7-7-7-7-7-----------------7--////----|
A|-5-5-5-5-5-5-5-5-8-8-8-8-8-8-8-8-5-5-5-5-5-5-5-5-8-8-8-8-8-8-8-8-5--////----|
E|-----------------6-6-6-6-6-6-6-6-----------------6-6-6-6-6-6-6-6------------|

Guitars 1 + 2:
e|----------------------------------|
B|----------------------------------|
G|-19-19-19-19-19-19-19\\\\---------|
D|-19-19-19-19-19-19-19\\\\7--------|
A|-17-17-17-17-17-17-17\\\\5--------|
E|----------------------------------|

| ^  half note bend
| ^* whole note bend
| /  slide up
| \  slide down
| h  hammer-on
| p  pull-off
| ~  vibrato
| +  harmonic
| x  Mute note
===============================================================================
 
 
D.O.A. - Prisoner :: indexed at Ultimate Guitar.
Prisoner tabs @ 911Tabs
People who played D.O.A. - Prisoner also played these songs by D.O.A.:
Waiting For You, Fucked Up Ronnie, Disco Sucks, Race Riot Tab, Fucked Up Ronnie Tab, Doa

Quick tip, so you can enjoy Prisoner even more:

If you don't really know how to deal with "Absus4" chord and his equally confusing brothers, just put the mouse cursor over them and you will be shown a helpful chord diagram.

Show us your talent, perform Prisoner!

Here you can post a video or audio performance. Tell me more ...
Where can we find your performance? Tell me more ...
Your comment:
Please, log in to post your performance.