Artists by letter: A B C D E F G H I J K L M N O P Q R S T U V W X Y Z 0-9

 
Valiente Al Combatir
Drum x 7

Riff1
E|----------I--------------------
B|----------I---------------------
G|----------I--------------------
D|--2/4--2--I-2--- -2------------
A|----------I----5-----2-----------
E|----------I---------------------

dedo:3---1--I-1--4-1---1


Parte A (Valiente al combatir, revolucionare...)

      Bm      A      E/G#      G
E|--------------------------------------
B|-------------------------------------
G|--------------------------------------
D|--4444444-2222222---------------------
A|--2222222-0000000-7777777-5555555-----
E|------------------4444444-3333333-----

      Bm     F#/A#        A   E/G#
E|------------------------------------
B|------------------------------------
G|------------------------------------
D|--4444444-4444444-2222222-------------
A|--2222222-1111111-0000000-5------------
E|--------------------------3-----------


Parte B (Como ese fuego que crece hoy en mi...)

          Bm             D           G        A#
E|-----------------------------------------------------------
B|-----------------------------------------------------------
G|--44444444444444-777777777777--------------33333333333333--
D|--44444444444444-777777777777-555555555555-33333333333333--
A|--22222222222222-555555555555-555555555555-11111111111111--
E|------------------------------333333333333-----------------

          Bm             D           G            E
E|-----------------------------------------------------------
B|-----------------------------------------------------------
G|--44444444444444-777777777777------------------------------
D|--44444444444444-777777777777-555555555555-22222222222222--
A|--22222222222222-555555555555-555555555555-22222222222222--
E|------------------------------333333333333-00000000000000--

Parte C (Reto el destino, Busco el camino...)

E|---------------------------------
B|---------------------------------
G|---------------------------------
D|---55-22-55-22--55-22-55-22------
A|---55-22-55-22--55-22-55-22------
E|---33-00-33-00--33-00-33-00------


Estructura:

Riff1
Parte A
Riff1
Parte A
Parte B
Parte A
Riff1
Parte A
Riff1
Parte A
Parte C
Parte B (x2)
Parte C
Parte A
Riff1

%%%% Acordes %%%%

Bm     A       E/G#   G
    Valiente al combatir,
Bm  F#/A#   A  E/G#
    revolucionaré,
Bm      A   E/G#    G
    mi mente al sentir,
Bm  F#/A#  A   E/G#
    alimentándome.

Bm                              D
Como ese fuego que crece hoy en mí
                         G
fortaleciendome para seguir
           A#         Bm
nuevos caminos sin temor.
                             D
Cruzo el peligro sin dificultad,
                               G           E
la eternidad es el precio a ganar la libertad.

Bm A E/G# G Bm F#/A# A E/G#

Bm     A     E/G#   G
    Profunda sensación,
Bm  F#/A#   A  E/G#
    alimentándome.
Bm     A     E/G#   G
    La noche terminó,
Bm  F#/A#   A  E/G#
    la oscuridad quebró.

G           E
Reto el destino,
G           E
busco el camino.
G           E
Reto el destino,
G         E       A#
busco el camino en mí.

(Palm Muting)

Bm                              D
Como ese fuego que crece hoy en mí
                         G
fortaleciendome para seguir
           A#         Bm
nuevos caminos sin temor.
                             D
Cruzo el peligro sin dificultad,
                               G           E
la eternidad es el precio a ganar la libertad. (x2)

G           E
Reto el destino,
G           E
busco el camino en mi.
G           E
Reto el destino,
G         E       A#
busco el camino en mí.

Final: Bm A E/G# G Bm F#/A# A E/G#

 
 
D-mente - Valiente Al Combatir :: indexed at Ultimate Guitar.
Valiente Al Combatir tabs @ 911Tabs
People who played D-mente - Valiente Al Combatir also played these songs by D-mente:
Te Vi Brillar Chords, En Tus Brazos Chords, Valiente Al Combatir Tab, Dispuestos A Matar Tab, Luz Chords, Crei Sin Ver Tab

Quick tip, so you can enjoy Valiente Al Combatir even more:

If you don't really know how to deal with "Absus4" chord and his equally confusing brothers, just put the mouse cursor over them and you will be shown a helpful chord diagram.

Show us your talent, perform Valiente Al Combatir!

Here you can post a video or audio performance. Tell me more ...
Where can we find your performance? Tell me more ...
Your comment:
Please, log in to post your performance.