Artists by letter: A B C D E F G H I J K L M N O P Q R S T U V W X Y Z 0-9

 
Dispuestos A Matar
Intro:
    C#5                 A5             F#5                 D5
E|---------------------------------------------------------------|
B|-----0-------0-----------0------0----------0------0------------|
G|---6---6---6---6---6-------0------0----------0------0----7-7-7-|
D|--6-------6-------6----7------7----------4------4--------7-7-7-|
A|-4-------4-------4----7------7----------4------4---------5-5-5-|
E|---------------------5------5--------0-2------2----------------|

Esta parte se puede hacer como intro

C#5            A5
Aaa atados en temor
              F#5
Nadamos sin mirar
               D5
Sumidos en un mar de obsesión de sexo y error
               C#5
Dispuestos a matar

EN LOS VERSOS LOS TRASTES LAS NOTAS PUESTAS 3 VECES (EJ 4)
SE TOCAN MAS VECES YO SOLO PUSE 3 PARA NO GASTAR TANTO

El fuego es parte de mi, y de ti
E|---------------------------|
B|---------------------------|
G|---------------------------|
D|-4-4-4-0-3-3-3-0-0-0-2-2-2-|
A|-4-4-4-0-3-3-3-0-0-0-2-2-2-|
E|-4-4-4-0-3-3-3-0-0-0-2-2-2-|


Ya se hace fácil fingir o reír
E|-------------------------|
B|-------------------------|
G|-------------------------|
D|-4-4-4-3-3-3-7-7-7-2-2-2-|
A|-4-4-4-3-3-3-7-7-7-2-2-2-|
E|-4-4-4-3-3-3-7-7-7-2-2-2-|

Infierno dulce y normal, anormal
E|---------------------------|
B|---------------------------|
G|---------------------------|
D|-4-4-4-0-3-3-3-0-0-0-2-2-2-|
A|-4-4-4-0-3-3-3-0-0-0-2-2-2-|
E|-4-4-4-0-3-3-3-0-0-0-2-2-2-|

Acto enfermizo serial por igual
E|-------------------------|
B|-------------------------|
G|-------------------------|
D|-4-4-4-3-3-3-7-7-7-2-2-2-|
A|-4-4-4-3-3-3-7-7-7-2-2-2-|
E|-4-4-4-3-3-3-7-7-7-2-2-2-|

En cualquier parte de mi o de ti
Ya los secretos no exhiben su vil

Infierno que no abraza otra vez y van
E|---------------------------|
B|---------------------------|
G|---------------------------|
D|-4-4-4-0-3-3-3-0-0-0-2-2-2-|
A|-4-4-4-0-3-3-3-0-0-0-2-2-2-|
E|-4-4-4-0-3-3-3-0-0-0-2-2-2-|

Enferma trampa serial, racional
E|-------------------------|
B|-------------------------|
G|-------------------------|
D|-4-4-4-3-3-3-7-7-7-2-2-2-|
A|-4-4-4-3-3-3-7-7-7-2-2-2-|
E|-4-4-4-3-3-3-7-7-7-2-2-2-|


                Irritación, excitación, puror x 2
E|----------------|------------------|   |--------------------|
B|----------------|------------------|   |--------------------|
G|----------------|------------------|   |--------------------|
D|-8-8-8-8-8-9-11-|-4-4-4/7--4-4-4/7-|x2 |-8----6/5--5/4--6/5-|
A|-8-8-8-8-8-9-11-|-4-4-4/7--4-4-4/7-|   |-8x7--6/5--5/4--6/5-|
E|-6-6-6-6-6-7-9--|-4-4-4/7--4-4-4/7-|   |-6----8/7--7/6--4/3-|

Aaa atados en temor
Nadamos sin mirar
Sumidos en un mar de obsesión de sexo y error
Dispuestos a matar
C#5                 A5             F#5            D5
E|----------------------------------------------------0----0--|
B|----0-------0-----------0-----0----------0----0------0----0-|
G|--6---6---6---6---6-------0-----0---------0----0---7----7---|
D|-6-------6-------6----7------7----------4----4----7----7----|
A|4-------4-------4----7------7----------4----4----5----5-----|
E|--------------------5------5--------0-2----2----------------|


C#5            A5
Aaa atados en temor
              F#5
Nadamos sin mirar
               D5
Sumidos en un mar de obsesión de sexo y error
               C#5
Dispuestos a matar
C#5            A5
Aaa atados en temor
              F#5
Nadamos en un mar
               D5
Sumidos en un mar de obsesión de sexo y error
               D5
Dispuestos a matar


            D-MENTE
Andrés - Lisardo - Gula - Marcelo
 
 
D-mente - Dispuestos A Matar :: indexed at Ultimate Guitar.
Dispuestos A Matar tabs @ 911Tabs
People who played D-mente - Dispuestos A Matar also played these songs by D-mente:
Te Vi Brillar Chords, En Tus Brazos Chords, Valiente Al Combatir Tab, Dispuestos A Matar Tab, Luz Chords, Crei Sin Ver Tab

Quick tip, so you can enjoy Dispuestos A Matar even more:

YourChords.com Guitar Chords and Tabs Archive is currently indexing over 240'000 songs from 21'000+ different artists. And new chords just keep on coming in, so you will surely never run out of them.

Show us your talent, perform Dispuestos A Matar!

Here you can post a video or audio performance. Tell me more ...
Where can we find your performance? Tell me more ...
Your comment:
Please, log in to post your performance.