Artists by letter: A B C D E F G H I J K L M N O P Q R S T U V W X Y Z 0-9

 
Crei Sin Ver
Riff 1:
e |-----------------------|
B |----------6------------|
G |--------7---7--5/7-7-7-|
D |------7----------------|
A |--5--------------------|
E |-----------------------|

Riff 2:
e |--------------------------|
B |----------6--7/8--6-5--3--|
G |--------7-----------------|
D |------7-------------------|
A |--5-----------------------|
E |--------------------------|


Dm - Riff 1          A#             G         D - Riff 1
Creí sin ver que era todo lo que había para ver
A#              G
ignorando lo mejor
Dm - Riff 1         A#             G              D - Riff 2
sin rumbo fui transgrediendo el saber sin propiedad
A#              G
que selló mi ardor

F                A#               G
Hoy, ya dejaré de ser aquel esclavo infiel
      D#
por un guerrero fiel
F                   A#                G
querré, fuerzas para luchar, nutrirme de razón
       D#
caminar sobre el mar?


(Agrega distorsión?)

D5                  A#5         G5          D5
Creí sin ver que era todo lo que había para ver
    A#5       G5
ignorando lo mejor
D5                 A#5           G5          D5
sin rumbo fui transgrediendo el saber sin propiedad
A#5       G5
que selló mi ardor

F5                A#5         G5
Hoy, ya dejaré de ser aquel esclavo infiel
        D#5
por un guerrero fiel
F5                  A#5                  G5
querré, fuerzas para luchar, nutrirme de razón
               D#5
caminar sobre el mar?


PUENTE:
          F5-F5  E5-E5  G5-G5  A  D5
e |---------------------------|
B |---------------------------|
G |--10-10--9-9--12-12-----7--|
D |--10-10--9-9--12-12-----7--|
A |---8--8--7-7--10-10--0--2--|
E |---------------------------|


D5    E5      F5         G5
en el alma llevo tu nombre
D5    E5      F5         G5
en el alma llevo tu nombre
D5    E5      F5         G5
en el alma llevo tu nombre
D5    E5      F5         G5
en el alma llevo tu nombre

A#                              D5
quizás el tiempo me dividió en dos
              E5       F5        G5              D5
dejando a un lado el temor para llegar mas firme a ti?


SOLO:
e |---------------------------------------8-8-6------------|
B |-------------6-8-10--------------------------6-10-8-10--|
G |----10-9-10^--------7-5-7-9^10-10-9-10^-----------------|
D |--7-----------------------------------------------------|
A |--------------------------------------------------------|
E |--------------------------------------------------------|

e |-------------------------------------10-10-8------------|
B |-----10---10---10---10---10--10-12^----------10-10-8----|
G |--12^--12^--12^--12^--12^----------------------------10-|
D |--------------------------------------------------------|
A |--------------------------------------------------------|
E |--------------------------------------------------------|

e |--------------------------------------------------------|
B |--8-8-6-------10-----------------13---------------------|
G |--------9-7-9-----10-10-9-7-9-10----7-9^-9-7-5/7-5/7----|
D |--------------------------------------------------------|
A |--------------------------------------------------------|
E |--------------------------------------------------------|

---------------------------------------------------------------------------
Y sigue la parte rápida? yo le ago una escala para no sacarla jaja.
El punteo, no se si esta bien (cosa q no creo)?
No soy bueno, ni paciente para sacar punteos?
Así q si alguien tiene una versión correcta del punteo, envíenla  por favor
[email protected]
---------------------------------------------------------------------------


F5                A#5         G5
Hoy, ya dejaré de ser aquel esclavo infiel
        D#5
Por un guerrero fiel
F5                  A#5                  G5
Querré, fuerzas para luchar, nutrirme de razón
               D#5
Caminar sobre el mar?


PUENTE:
          F5-F5  E5-E5  G5-G5  A  D5
e |---------------------------|
B |---------------------------|
G |--10-10--9-9--12-12-----7--|
D |--10-10--9-9--12-12-----7--|
A |---8--8--7-7--10-10--0--2--|
E |---------------------------|

D5    E5      F5         G5
en el alma llevo tu nombre
D5    E5      F5         G5
en el alma llevo tu nombre
D5    E5      F5         G5
en el alma llevo tu nombre
D5    E5      F5         G5
en el alma llevo tu nombre

A#                              D5
quizás el tiempo me dividió en dos
              E5       F5        G5              D5
Dejando a un lado el temor para llegar mas firme a ti?

-------------------------------------------------------

Bueno ahi les dejo un temazo de D-mente....
espero q les sirva... hice lo q pude jaja
cualquier corrección.. [email protected]
 
 
D-mente - Crei Sin Ver :: indexed at Ultimate Guitar.
Crei Sin Ver tabs @ 911Tabs
People who played D-mente - Crei Sin Ver also played these songs by D-mente:
Te Vi Brillar Chords, En Tus Brazos Chords, Valiente Al Combatir Tab, Dispuestos A Matar Tab, Luz Chords, Crei Sin Ver Tab

Quick tip, so you can enjoy Crei Sin Ver even more:

You might want to transpose the song if it is too high or too low for you to sing. Just click the desired option while playing a song and all the chords will automatically be transponded into a new key.

Show us your talent, perform Crei Sin Ver!

Here you can post a video or audio performance. Tell me more ...
Where can we find your performance? Tell me more ...
Your comment:
Please, log in to post your performance.