Artists by letter: A B C D E F G H I J K L M N O P Q R S T U V W X Y Z 0-9

 
Nubes Negras
Nubes negras (Carca).

MIm          DO
Nubes negras, vanidades
MIm          DO            SOL 
Nubes negras, insondables
             RE           LAm
SonreĆ­ste, sonreĆ­ste.
            DO    SOL   RE
Te diste vuelta y solo viste.(escupiste)

Nubes negras.


Intro

    MIm            DO 
1|--------------|-----------||
||--------------|-------1---||
||------0-------|-----0---0-||
||----2---2//4--0*--2-------||
||--2-----------0*--3-------||
6|--0-----------|-----------||

Aclaracion: // Slide, y las notas con * son de paso, entre compaces.


Solo


1|--------------------------------|| Se repite ocho
||--------------------------------|| veces, pero variando 
||------------0-2-0-------4-2-0---|| una octava.
||-2-0-2--2-4-------4-2---------0-||
||----------------------3---------||
6|--------------------------------||

Que tus dedos sangren, cualquier cosa: [email protected]
Suerte, Sebas.
 
 
Carca - Nubes Negras :: indexed at Ultimate Guitar.
Nubes Negras tabs @ 911Tabs

Quick tip, so you can enjoy Nubes Negras even more:

If you don't really know how to deal with "Absus4" chord and his equally confusing brothers, just put the mouse cursor over them and you will be shown a helpful chord diagram.

Show us your talent, perform Nubes Negras!

Here you can post a video or audio performance. Tell me more ...
Where can we find your performance? Tell me more ...
Your comment:
Please, log in to post your performance.