Artists by letter: A B C D E F G H I J K L M N O P Q R S T U V W X Y Z 0-9

 
Machines
Band: Capharnaum 
Album: Fractured 
Song: Machines



Code: 
. - palm mute           / - slide up to 
\ - slide down to       x " Staccato 
h - hammer on           p - pull off 
, - slight palm mute    () - ghost note, sustained note 
" - tremolo note         - Trill 
L " left channel only   R " right channel only 
* - see comment

Suffixes for bend 
f - full bend       h - half bend 
q - quarter bend    t - tap bend 
^ - Hold bend       r - release bend 
~ - vibrato bend

Suffixes for harmonic 
ph - pinched harmonic   n " natural/artificial harmonic

Tuning A D A D G B E

Intro A (0:00) 
|--------------------------------------------------------------| 
|--------------------------------------------------------------| 
|-------2-3----------------------------------------------------| 
|---------------1-2-1-----------3h5p3-2-------2h3p2p0----------| 
|---0-2-----2-4-------4-2---------------5-3-----------3-2------| gtr 1 
|-2-----------------------6-4-6-------------5-------------6-5--| 
|-0------------------------------------------------------------| 
    . . . . . . . . . . . . . .       . . . .         . . . . 
|--------------------------------------------------------------| 
|--------------------------------------------------------------| 
|--------------------------------------------------------------| 
|--------------------------------------------------------------| 
|--------------------------------------------------------------| gtr 2 
|-2------------------------------------------------------------| 
|-0------------------------------------------------------------| 
    x

Intro B (0:04) 
|--------------------------------------------------------------------------| 
|--------------------------------------------------------------------------| 
|-------2-3-------------------------------------------------------------6~-| 
|---------------1-2-1-----------3h5p3-2-------2h3p2p0---------------6-8----| 
|---0-2-----2-4-------4-2---------------5-3-----------3-2-------6-8--------| gtr 1 
|-2-----------------------6-4-6-------------5-------------6-5-6------------| 
|-0------------------------------------------------------------------------| 
    . . . . . . . . . . . . . .       . . . .         . . . . . . . . . . 
|--------------------------------------------------------------------------| 
|-----------------------------------------------------------------------4~-| 
|-------------------------------------------------------------------4-6----| 
|---------------------------------------------------------------4-6--------| 
|-------------------------------------------------------------4------------| gtr 2 
|-2------------------------------------------------------------------------| 
|-0------------------------------------------------------------------------| 
    x                                                         . . . . . .

Riff 1a (0:07) 
|--------------------------------------------------------------| 
|--------------------------------------------------------------| 
|-------2-3----------------------------------------------------| 
|---------------1-2-1-----------3h5p3-2-------2h3p2p0----------| 
|---0-2-----2-4-------4-2---------------5-3-----------3-2------| 
|-2-----------------------6-4-6-------------5-------------6-5--| 
|-0------------------------------------------------------------| 
    . . . . . . . . . . . . . .       . . . .         . . . .

Riff 1b (0:11) 
|--------------------------------------------------------------------------| 
|--------------------------------------------------------------------------| 
|-------2-3-------------------------------------------------------------6~-| 
|---------------1-2-1-----------3h5p3-2-------2h3p2p0---------------6-8----| 
|---0-2-----2-4-------4-2---------------5-3-----------3-2-------6-8--------| gtr 1 
|-2-----------------------6-4-6-------------5-------------6-5-6------------| 
|-0------------------------------------------------------------------------| 
    . . . . . . . . . . . . . .       . . . .         . . . . . . . . . . 
|--------------------------------------------------------------------------| 
|-----------------------------------------------------------------------4~-| 
|-------2-3---------------------------------------------------------4-6----| 
|---------------1-2-1-----------3h5p3-2-------2h3p2p0-----------4-6--------| 
|---0-2-----2-4-------4-2---------------5-3-----------3-2-----4------------| gtr 2 
|-2-----------------------6-4-6-------------5-------------6-5--------------| 
|-0------------------------------------------------------------------------| 
    . . . . . . . . . . . . . .       . . . .         . . . . . . . . . .

Riff 1a x 1 (0:15) 
Riff 1b x 1 (0:19)

Riff 2 (0:22) 
|-----------------------------------------------| 
|-----------------------------------------------| 
|-----------------------------------------------| 
|------------------------------------3-------2--| 
|-----------------2--------------------0-1-2----| 
|-----2-1---3-0-3-2------2-1---3-0-3------------| 
|-0-1-----0----------0-1-----0------------------| 
  . . . . . . . .    . . . . . . . . . . . .

Riff 3a (0:35) 
|--------------------------------------------| 
|--------------------------------------------| 
|--------------------------------------------| 
|-------------------------------3
 
 
Capharnaum - Machines :: indexed at Ultimate Guitar.
Machines tabs @ 911Tabs
People who played Capharnaum - Machines also played these songs by Capharnaum:
Perpetuate Catatonia Tab, Perpetuate Catatonia Tab, Icon Of Malice Tab, Ingrained Tab, Machines Tab, Fractured Tab

Quick tip, so you can enjoy Machines even more:

After the registration (which takes just 10 seconds, remember?) you will be able to use your profile - your very own piece of YourChords.com.

Show us your talent, perform Machines!

Here you can post a video or audio performance. Tell me more ...
Where can we find your performance? Tell me more ...
Your comment:
Please, log in to post your performance.