Artists by letter: A B C D E F G H I J K L M N O P Q R S T U V W X Y Z 0-9

 
Days They Come
-------------------------------------------------------------------------------
                             Days They Come - California Breed
-------------------------------------------------------------------------------
Tabbed by: Adam Cook
E-mail: [email protected]

Tuning:Eb Ab Db Gb Bb Eb

Main Riff
0:00
eb|------------------------------|
Bb|------------------------------|
Gb|------------------------------|
Db|------------------------------|
Ab|------------------------------|
Eb|-7-7-7-7-9b9.5--7-7-7-7-9b9.5-|

Verse
0:11
eb|---------------|
Bb|---------------|
Gb|---------------|
Db|-4-2-5---5-7-9-|
Ab|-4-2-5---5-7-9-|
Eb|-2-0-3---3-5-7-|

Pre Chorus (Strumming not exact)
0:40
e|--------------------------------------------------------|
B|--------------------------------------------------------|
G|--------------------------------------------------------|
D|-10-10-10-10-10-10/9-7-7-7-7-7-7-7-7-7-9-10-10-10-10-10-|
A|-10-10-10-10-10-10/9-7-7-7-7-7-7-7-7-7-9-10-10-10-10-10-|
E|--8--8--8--8--8--8/7-5-5-5-5-5-5-5-5-5/7-8--8--8--8--8--|

Main Riff ending 
1:33
e|---------------------------|
B|---------------------------|
G|---------------------------|
D|-9--7--------------9--7-6--|
A|-7--5-Second time--7--5-4--|
E|-7--5-----1:46-----7--5-4--|

Ending
3:50
e|-------|
B|-------|
G|-------|
D|-4-2-5-|
A|-4-2-5-|
E|-2-0-3-|


************************************
 
 
California Breed - Days They Come :: indexed at Ultimate Guitar.
Days They Come tabs @ 911Tabs
People who played California Breed - Days They Come also played these songs by California Breed:
All Falls Down Tab, Days They Come Tab, Invisible Tab, Breathe Tab, Breathe, All Falls Down

Quick tip, so you can enjoy Days They Come even more:

After the registration (which takes just 10 seconds, remember?) you will be able to use your profile - your very own piece of YourChords.com.

Show us your talent, perform Days They Come!

Here you can post a video or audio performance. Tell me more ...
Where can we find your performance? Tell me more ...
Your comment:
Please, log in to post your performance.