Artists by letter: A B C D E F G H I J K L M N O P Q R S T U V W X Y Z 0-9

 
All Falls Down
-------------------------------------------------------------------------------
                             ALL FALLS DOWN - California Breed
-------------------------------------------------------------------------------
Tabbed by: Adam Cook
E-mail: [email protected]

Tuning: Eb Ab Db Gb Bb Eb

Intro/Outro: Clean Fingerstyle
  0:00                                  0:06
eb|------3---1-----0h1-------1p0-0-----|------3---5-5------1p0-0--------------|
Bb|-0------0-----------------------(0)-|-0------0---------------(0)-----------|
Gb|----0-------0-------0---------------|----0---------------------------------|
Db|--------------2---------2-----------|-----------------2--------------------|
Ab|----------3-----------3-------------|----------3-3--3----------------------|
Eb|-3-------------------------------3--|-3-----------------------3------------|

Pre-Chorus w/pick
  0:44
eb|---------------------------------------------------------------------------|
Bb|------3------3-----3--3--3---3------3-----3-----3--3-----------------------|
Gb|-----0-0----0-0---0--0----0---0----0-0---0-0---0--0------------------------|
Db|--------0--0---0-3--2-----------------0-0---0-3--2-------------------------|
Ab|-2s3------2-------------1---0---2s3----2-----------------------------------|
Eb|-----------------------------------------------------3---------------------|

Chorus
   1:13              1:21
eb|-----------------|------------------3----------------------------------------|
Bb|-----------------|------------------3----------------------------------------|
Gb|-----------5--5--|-------------2-0--0----------------------------------------|
Db|-5----3----5--5--|---5----7----3-3--0----------------------------------------|
Ab|-5----3----3--3--|---5----7----3-3--2----------------------------------------|
Eb|-3----1----------|---3----5----1-1--3----------------------------------------|

Solo
   3:29 
eb|-----------------------------------------------------------------------------------------------|
Bb|--------------3b5r3---0h3tr-3s8--10b12r10b12--15b17r15~--15p12---12-15p12--12-15p12--12-15b17~-|
Gb|--2b4r2p0h2b4~-------------------------------------------------14--------14--------14----------|
Db|-----------------------------------------------------------------------------------------------|
Ab|-----------------------------------------------------------------------------------------------|
Eb|-----------------------------------------------------------------------------------------------|
 

For the rest of the solo just improvise.


 
 
California Breed - All Falls Down :: indexed at Ultimate Guitar.
All Falls Down tabs @ 911Tabs
People who played California Breed - All Falls Down also played these songs by California Breed:
All Falls Down Tab, Days They Come Tab, Invisible Tab, Breathe Tab, Breathe, Invisible

Quick tip, so you can enjoy All Falls Down even more:

YourChords.com Guitar Chords and Tabs Archive is currently indexing over 240'000 songs from 21'000+ different artists. And new chords just keep on coming in, so you will surely never run out of them.

Show us your talent, perform All Falls Down!

Here you can post a video or audio performance. Tell me more ...
Where can we find your performance? Tell me more ...
Your comment:
Please, log in to post your performance.