Artists by letter: A B C D E F G H I J K L M N O P Q R S T U V W X Y Z 0-9

 
Voices Of The Dead
Song: Voices of the Dead
Band: Calabrese
Album: The Travelling Vampire Show

Tabbed by: Sam Flowers

Intro.

|--------------------------------------------------------------| 
|--------------------------------------------------------------| 
|--7--7-7-7-----------------6-7---7--7-7-7--------10-10-10--9--| 
|--x--x-x-x---7-8---8-8-8---x-x---x--x-x-x---7-8--x--x---x--x--| 
|--5--5-5-5---7-8---6-6-6---4-5---5--5-5-5---7-8--8--8---8--7--| 
|-------------5-6---6-6-6--------------------5-6---------------|

|-------------------------------------------------| 
|---------------------------------------8-8-8-8---| 
|--7--7-7-7-----------------------------8-8-8-8---| 
|--x--x-x-x---7-8---8-8-8---5-5-5-5-5---6-6-6-6---| 
|--5--5-5-5---7-8---8-8-8---5-5-5-5-5-------------| 
|-------------5-6---6-6-6---3-3-3-3-3-------------|

Verse 
 
 
Calabrese - Voices Of The Dead :: indexed at Ultimate Guitar.
Voices Of The Dead tabs @ 911Tabs
People who played Calabrese - Voices Of The Dead also played these songs by Calabrese:
One Of Us Tab, Inside This Coffin Tab, Zombie I Tab, Your Ghost Tab, Blood In My Eyes Tab, Come Alive Tab

Quick tip, so you can enjoy Voices Of The Dead even more:

You might want to transpose the song if it is too high or too low for you to sing. Just click the desired option while playing a song and all the chords will automatically be transponded into a new key.

Show us your talent, perform Voices Of The Dead!

Here you can post a video or audio performance. Tell me more ...
Where can we find your performance? Tell me more ...
Your comment:
Please, log in to post your performance.