Artists by letter: A B C D E F G H I J K L M N O P Q R S T U V W X Y Z 0-9

 
Jerk It Out
-------------------------------------------------------------------------------
                            Jerk it Out- Caesars  
-------------------------------------------------------------------------------
Tabbed by: Sovaso
Album: Love For the Streets/39 Minutes of Bliss
Tuning: Standard
Guitar 1: Keyboards, Lead          
Guitar 2: Rhythm Guitar
Guitar 3: Solo/Fills

No one seems to get this right, so, I though I might try my hand at it!

Intro
Guitar 1
e|---11-----11--11--11--------9------7--7--7----------|
B|-9-12--9--12--12--12--9-7---11--7--9--9--9----------|
G|----------------------------------------------------| x3
D|----------------------------------------------------|
A|----------------------------------------------------|
E|----------------------------------------------------|

Guitar 2
e|---------------------------------------------------|
B|---------------------------------------------------|
G|---------------------------------------------------| x2
D|\6---6--x-x-x-x--9--9--6--4---4-x-x-x-x-2---2------|
A|\6---6--x-x-x-x--9--9--6--4---4-x-x-x-x-2---2------|
E|\4---4--x-x-x-x--7--7--4--2---2-x-x-x-x-0---0------|

Verse 1
Guitar 2
e|---------------------------------------------------|
B|---------------------------------------------------|
G|---------------------------------------------------| x7
D|-6---6--x-x-x-x--9--9--6--4---4-x-x-x-x-2---2------|
A|-6---6--x-x-x-x--9--9--6--4---4-x-x-x-x-2---2------|
E|-4---4--x-x-x-x--7--7--4--2---2-x-x-x-x-0---0------|

On the 2nd, 4th, and 7th times that guitar 2 plays its part, Guitar 1 does:
Guitar 1
e|---11-----11--11--11--------9------7--7--7----------|
B|-9-12--9--12--12--12--9-7---11--7--9--9--9----------|
G|----------------------------------------------------| 
D|----------------------------------------------------|
A|----------------------------------------------------|
E|----------------------------------------------------|

Chorus 
Guitars 1 and 2
e|---------------------------------------------------------------------------|
B|---------------------------------------------------------------------------|
G|---------------------------------------------------------------------------|
D|-2---2---2---2--2-2-6---6---6---6--6-6-4---4---4---4--4-4-6---6---6---6----|
A|-2---2---2---2--2-2-6---6---6---6--6-6-4---4---4---4--4-4-6---6---6---6----|
E|-0---0---0---0--0-0-4---4---4---4--4-4-2---2---2---2--2-2-4---4---4---4----|
'Cause it's easy once you know how it's done You can't stop now It's already begun   
 
 
e|---------------------------------------------------------------------------|
B|---------------------------------------------------------------------------|
G|---------------------------------------------------------------------------|
D|-2---2---2---2--2-2-6---6---6---6--6-6-4-4-4-4-4-4-4-4--4~-----------------|
A|-2---2---2---2--2-2-6---6---6---6--6-6-4-4-4-4-4-4-4-4--4~-----------------|
E|-0---0---0---0--0-0-4---4---4---4--4-4-2-2-2-2-2-2-2-2--2~-----------------|
You Feel it running through your bones                        And you Jerk it out

Interlude
e|---11-----11--11--11--------9------7--7--7----------|
B|-9-12--9--12--12--12--9-7---11--7--9--9--9----------|
G|----------------------------------------------------| x2
D|----------------------------------------------------|
A|----------------------------------------------------|
E|----------------------------------------------------|

Guitar 2
e|-------------------------------------------------------------------------------|
B|-------------------------------------------------------------------------------|
G|-------------------------------------------------------------------------------|   
D|\6---6--x-x-x-x--9--9--6--4---4-x-x-x-x-2---2-x-x--6--6-x-x-x-x--9--9----------|
A|\6---6--x-x-x-x--9--9--6--4---4-x-x-x-x-2---2-x-x--6--6-x-x-x-x--9--9----------|
E|\4---4--x-x-x-x--7--7--4--2---2-x-x-x-x-0---0-x-x--4--4-x-x-x-x--7--7----------|

Verse 2
Guitar 2
e|---------------------------------------------------|
B|---------------------------------------------------|
G|---------------------------------------------------| x7
D|-6---6--x-x-x-x--9--9--6--4---4-x-x-x-x-2---2------|
A|-6---6--x-x-x-x--9--9--6--4---4-x-x-x-x-2---2------|
E|-4---4--x-x-x-x--7--7--4--2---2-x-x-x-x-0---0------|

2nd, 4th, and 7th times that guitar 2 plays its part, Guitar 1:
Guitar 1
e|---11-----11--11--11--------9------7--7--7----------|
B|-9-12--9--12--12--12--9-7---11--7--9--9--9----------|
G|----------------------------------------------------| 
D|----------------------------------------------------|
A|----------------------------------------------------|
E|----------------------------------------------------|

Chorus 
Guitars 1 and 2
e|---------------------------------------------------------------------------|
B|---------------------------------------------------------------------------|
G|---------------------------------------------------------------------------|
D|-2---2---2---2--2-2-6---6---6---6--6-6-4---4---4---4--4-4-6---6---6---6----|
A|-2---2---2---2--2-2-6---6---6---6--6-6-4---4---4---4--4-4-6---6---6---6----|
E|-0---0---0---0--0-0-4---4---4---4--4-4-2---2---2---2--2-2-4---4---4---4----|
'Cause it's easy once you know how it's done You can't stop now It's already begun   
 
 
e|---------------------------------------------------------------------------|
B|---------------------------------------------------------------------------|
G|---------------------------------------------------------------------------|
D|-2---2---2---2--2-2-6---6---6---6--6-6-4-4-4-4-4-4-4-4--4~-----------------|
A|-2---2---2---2--2-2-6---6---6---6--6-6-4-4-4-4-4-4-4-4--4~-----------------|
E|-0---0---0---0--0-0-4---4---4---4--4-4-2-2-2-2-2-2-2-2--2~-----------------|
You Feel it running through your bones                        And you Jerk it out

Drum Break for 4 bars
Then Guitar 3 comes in with
Guitar 3: 
e|------------------------------------------------------|
B|------------------------------------------------------|
G|------------------------------------------------------|
D|-6--------------9-----------------4--------------2----| x3
A|-6--------------9-----------------4--------------2----|
E|-4--------------7-----------------2--------------0----|
 (Swell on all of these with a volume pedal)

On the last time: 

Guitar 3: 
e|--------------------------------------|
B|--------------------------------------|
G|--------------------------------------|
D|-6--------------9-----------------4---|
A|-6--------------9-----------------4---|
E|-4--------------7-----------------2---|
 (Still swelling with pedal...... Don't Swell)

On the last one, don't swell and stop hard

Mean while, Guitar 1 plays the:
e|---11-----11--11--11--------9------7--7--7----------|
B|-9-12--9--12--12--12--9-7---11--7--9--9--9----------|
G|----------------------------------------------------| 
D|----------------------------------------------------|
A|----------------------------------------------------|
E|----------------------------------------------------|

on the 2nd and 4th times, after that,

Chorus
 Guitars 1 and 2
e|---------------------------------------------------------------------------|
B|---------------------------------------------------------------------------|
G|---------------------------------------------------------------------------|
D|-2---2---2---2--2-2-6---6---6---6--6-6-4---4---4---4--4-4-6---6---6---6----|
A|-2---2---2---2--2-2-6---6---6---6--6-6-4---4---4---4--4-4-6---6---6---6----|
E|-0---0---0---0--0-0-4---4---4---4--4-4-2---2---2---2--2-2-4---4---4---4----|
'Cause it's easy once you know how it's done You can't stop now It's already begun   
 
 
e|---------------------------------------------------------------------------|
B|---------------------------------------------------------------------------|
G|---------------------------------------------------------------------------|
D|-2---2---2---2--2-2-6---6---6---6--6-6-4-4-4-4-4-4-4-4--4~-----------------|
A|-2---2---2---2--2-2-6---6---6---6--6-6-4-4-4-4-4-4-4-4--4~-----------------|
E|-0---0---0---0--0-0-4---4---4---4--4-4-2-2-2-2-2-2-2-2--2~-----------------|
You Feel it running through your bones                        And you Jerk it out

Solo
Guitars 1 and 2
e|---------------------------------------------------------------------------|
B|---------------------------------------------------------------------------|
G|---------------------------------------------------------------------------|
D|-2---2---2---2--2-2-6---6---6---6--6-6-4---4---4---4--4-4-6---6---6---6----|
A|-2---2---2---2--2-2-6---6---6---6--6-6-4---4---4---4--4-4-6---6---6---6----|
E|-0---0---0---0--0-0-4---4---4---4--4-4-2---2---2---2--2-2-4---4---4---4----|
 
e|---------------------------------------------------------------------------|
B|---------------------------------------------------------------------------|
G|---------------------------------------------------------------------------|
D|-2---2---2---2--2-2-6---6---6---6--6-6-4-4-4-4-4-4-4-4--4~-----------------|
A|-2---2---2---2--2-2-6---6---6---6--6-6-4-4-4-4-4-4-4-4--4~-----------------|
E|-0---0---0---0--0-0-4---4---4---4--4-4-2-2-2-2-2-2-2-2--2~-----------------|

Guitar 3
e|---------------------------------------------------------------------------|
B|-12~~~~~~~~~~--11~~~~~~----------------------------------------------------|
G|------------------------11~~~~~~~------------------------------------------|
D|-----------------------------------11~~~~~~~~~~~-13~~~~~~~~~~~~~~~~~-------|
A|---------------------------------------------------------------------------|
E|---------------------------------------------------------------------------|

e|-------------------------------11~~~~~~~~--13b15~~~~~~~~~~~~~--------------|
B|-12~~~~~~~~~~~---14~~~~~~~~~-----------------------------------------------|
G|---------------------------------------------------------------------------|
D|---------------------------------------------------------------------------|
A|---------------------------------------------------------------------------|
E|---------------------------------------------------------------------------|
                                                                   And you Jerk it out

Outro
Guitar 1
e|---11-----11--11--11--------9------7--7--7----------|
B|-9-12--9--12--12--12--9-7---11--7--9--9--9----------|
G|----------------------------------------------------| x10
D|----------------------------------------------------|
A|----------------------------------------------------|
E|----------------------------------------------------|

Guitar 2
e|---------------------------------------------------|
B|---------------------------------------------------|
G|---------------------------------------------------| 
D|\6---6--x-x-x-x--9--9--6--4---4-x-x-x-x-2---2------| x10
A|\6---6--x-x-x-x--9--9--6--4---4-x-x-x-x-2---2------|
E|\4---4--x-x-x-x--7--7--4--2---2-x-x-x-x-0---0------|
 And you jerk it out  don't you know you really gotta Jerk it out

Guitar 3
e|--------------------------------------------------------|
B|-9------9------9------9-------9------9------9------9----|
G|-11b13--11b13--11b13--11b13---11b13--11b13--11b13--11b13| x10
D|--------------------------------------------------------|
A|--------------------------------------------------------|
E|--------------------------------------------------------|
         Hold Bend------------|       Hold bend----------|


Final Chord
Guitars 1,2 and 3
e|-4~~~~-|
B|-4~~~~-|
G|-4~~~~-|
D|-6~~~~-|
A|-6~~~~-|
E|-4~~~~-|

Thanks!! Rate, please, maybe comment if you have any corrections!!
Sovaso

************************************

| /   slide up
| \   slide down
| h   hammer-on
| p   pull-off
| ~   vibrato
| +   harmonic
| x   Mute note
| b   Bend
| pb  Pre-bend
| br  Bend release
| pbr Pre-bend release
| brb Bend release bend

************************************
 
 
Caesars - Jerk It Out :: indexed at Ultimate Guitar.
Jerk It Out tabs @ 911Tabs

Quick tip, so you can enjoy Jerk It Out even more:

If you don't really know how to deal with "Absus4" chord and his equally confusing brothers, just put the mouse cursor over them and you will be shown a helpful chord diagram.

Show us your talent, perform Jerk It Out!

Here you can post a video or audio performance. Tell me more ...
Where can we find your performance? Tell me more ...
Your comment:
Please, log in to post your performance.