Artists by letter: A B C D E F G H I J K L M N O P Q R S T U V W X Y Z 0-9

 
Un Viaje Tenue
Riff1
      A#5    G5          F#5     D#5
e---------------------------------------
B---------------------------------------
G--------3------------------------------
D------3------5--------------4-------1--
A----1------5--------------4-------1---1
D---------5----1-------1s4-------1------

Riff2
     A#5  G#5-F#5-F5-D#5
e---------------------------------------
B---------------------------------------
G----3-3-3------------------------------
D----3-3-3-6-4-3-1----------------------
A----1-1-1-6-4-3-1----------------------
D----------6-4-3-1----------------------

Riff3

e---------------------------------------
B---------------------------------------
G--------3-------5-------6--------------
D------3-------5-------6-----3----------
A----1-----1s3-----3s4-----1------------
D------------------------------1--------


Intro 2 x Riif1


            Riff1
Un desierto interior, calmo mis ansias
            Riff1
Un Jardin de extremidad, el viaje tenue
            Riff1
Soy Chimilco Santa Fe mis, labios llenos
            Riff1
Y en los ojos descubrio, el alma en celo


F#5
Ahhhh Ahhh Ahhh


1 x Riff1

              Riff1
Y la esquirla en la razon, hombre de voto
              Riff1
Una virgen en su corral, espera senil
              Riff1
No digas que no avise, esta llegando


F#5             A#5
No vas, No vas a sentirme regresar
F#5    A#5
No vas a sentirme retornar
F#5            A#5
Ahhh Ahhh Ahhh alguien por quien soñar
F#5    A#5
No hay por mi

1 x Riif2

2 x Riff1

             Riff1
El peaje sentencio el gran secreto
             Riff1
Esquivando la adultez era plagiado


F#5             A#5
No vas, No vas a sentirme regresar
F#5    A#5
No vas a sentirme retornar
F#5            A#5
Ahhh Ahhh Ahhh alguien por quien soñar
F#5    A#5
No hay por mi

1 x Riif2

1 x Riff1

1 x Riff3

F#5       D#5      A#5
Alguien lloro por mi


Esta es mi primera transcripcion, suena bastante bien
acepto comentarios. Aguante CABEZONES......
 
 
Cabezones - Un Viaje Tenue :: indexed at Ultimate Guitar.
Un Viaje Tenue tabs @ 911Tabs
People who played Cabezones - Un Viaje Tenue also played these songs by Cabezones:
Abismo Tab, Pasajero En Extincion Chords, Pasajero En Extincion Chords, Lunes Chords, Mi Pequea Infinidad Chords, Globo Tab

Quick tip, so you can enjoy Un Viaje Tenue even more:

Try out the AutoScroller option ... It scrolls the page for you, so you can totally focus on nailing that solo. You can choose among different speeds using your mouse or your keyboard (keys 0, 1, 2 and 3).

Show us your talent, perform Un Viaje Tenue!

Here you can post a video or audio performance. Tell me more ...
Where can we find your performance? Tell me more ...
Your comment:
Please, log in to post your performance.