Artists by letter: A B C D E F G H I J K L M N O P Q R S T U V W X Y Z 0-9

 
Soledad
Soledad ? Eclipse (Sol)
Hice lo que pude? cualquier cosa: [email protected]

Afinación: C G C F A D

/: Slide

Intro: (los acordes van rasgueados)
--|--------------------------------------------------------------------------------
--|--------------------------------------------------------------------------------
--|----5/7---8/-----5/7-----------------------------5/7---8/15----5/7----5/8-------
--|----5/7---6/15---5/7---3-1---3-1---6-3---6-3-----5/7---6/15----5/7----3/6-------
--|----3/5---6/15---3/5---3-1---3-1---6-3---6-3-----3/5---6/15----3/5----3/6-------
--|----------6/15---------3-1---3-1---6-3---6-3-----------6/15-----------3/6-------


--|------------------------------3-----3-3-------------------------------
--|----------------------------------------------------------------------
--|----5-3-------8---------5-3-------------------------------------------
--|---5---5-----8--8------5---5------------------------------------------
--|--3-----3---6----6----3-----3----3------------------------------------
--|-----------6----------------------------------------------------------

Este es el mismo punteo que Pichu repite después del primer verso. 
Sostengan cada nota un poquito.
Para más ayuda, como siempre, escuchen el tema y traten de seguirlo.
--|-------------------------------------------------------
--|-------------------------------------------------------
--|-------------------------------------------------------
--|---8/10------------------------------------------------
--|--------8/10---8/6-6/5-5/6---8--8/10---8?8/10---10/13--
--|-------------------------------------------------------

Estos son los acordes del verso. Hagan siempre el primer arpegio, que es el que 
le da cadencia a la voz. Para lo demás, tan solo tienen que arpegiar a gusto.
Las cuerdas que Pichu usa para marcar las melodías son la tercera y cuarta.
--|-------------------------------------------------------
--|-------------------------------------------------------
--|-----5-3------8----------------------------------------
--|----5---5-----8----------------------------------------
--|---3-----3----6----------------------------------------
--|--------------6----------------------------------------

   ?Y me dejo ver? ? (Denle cadencia con el rasgueo lento) El acorde de quinta 
en el tercer traste aparece cuando dice ?soledad?
--|----3----6----3----6----3----6----3----6?-|------------------
--|----3----6----3----6----3----6----3----6--|------6-------6---
--|----5----8----5----8----5----8----5----8--|--5---8---5---8---
--|----3----6----3----6----3----6----3----6--|--5---6---5---6---
--|----3----6----3----6----3----6----3----6--|--3---6---3---6---
--|----3----6----3----6----3----6----3----6--|------6-------6---


En este punteo, tienen que usar mucho vibratto. La ?h? es por el hammer.
--|-11---11---10---10h11h10/--3--3--3/6--6--6?6h8?6h8---8/11--11-
--|------------------------------------------------------
--|------------------------------------------------------
--|------------------------------------------------------
--|------------------------------------------------------
--|------------------------------------------------------

-11/13--13--13?13/11--10--11?10/--3?3/6--6--6?6h8---8/-----
--|------------------------------------------------------
--|------------------------------------------------------
--|------------------------------------------------------
--|------------------------------------------------------
--|------------------------------------------------------


Verso:
--|-------------------------------------------------------
--|-------------------------------------------------------
--|-----5-3------8----------------------------------------
--|----5---5-----8----------------------------------------
--|---3-----3----6----------------------------------------
--|--------------6----------------------------------------

Puente: rasgueen con fuerza y muy continuadamente.
--|------------------------------------------------------
--|------------------------------------------------------
--|---5----8----3----5----8----3-------------------------
--|---3----6----1----3----6----1-------------------------
--|---3----6----1----3----6----1-------------------------
--|---3----6----1----3----6----1-------------------------


Repitan hasta que dice ?Alguien sabe cuál será mi soledad?
A partir de ese momento se intercala la introducción con acordes del estribillo.

Y finalmente:                 Dejen que el último acorde resuene, queda más bonito.
--|--------------------------------------------------------
--|---------------------------3----------------------------
--|-----5-3---------8---------5----------------------------
--|----5---5-------8--8-------3----------------------------
--|---3-----3-----6----6------3----------------------------
--|--------------6------------3----------------------------
 
 
Cabezones - Soledad :: indexed at Ultimate Guitar.
Soledad tabs @ 911Tabs

Quick tip, so you can enjoy Soledad even more:

YourChords.com Guitar Chords and Tabs Archive is currently indexing over 240'000 songs from 21'000+ different artists. And new chords just keep on coming in, so you will surely never run out of them.

Show us your talent, perform Soledad!

Here you can post a video or audio performance. Tell me more ...
Where can we find your performance? Tell me more ...
Your comment:
Please, log in to post your performance.