Artists by letter: A B C D E F G H I J K L M N O P Q R S T U V W X Y Z 0-9

 
Ojos En Mi Espalda
AfinaciĆ³n: D A F C G C

Intro:
						
D|-------------------------------------------||	D|--------------------------------------------||
A|-------------------------------------------||	A|--------------------------------------------||
F|-------------------------------------------||	F|--------------------------------------------||
C|---7-7-9-9-7-9--12-12---7-7-9-9-7-9--3-3---||	C|---7-7-9-9-7-9--12-12---7-7-9-9-7-9--3--3---|| 
G|---7-7-9-9-7-9--12-12---7-7-9-9-7-9--3-3---||	G|---7-7-9-9-7-9--12-12---7-7-9-9-7-9--3--3---||
C|---7-7-9-9-7-9--12-12---7-7-9-9-7-9--3-3---||	C|---7-7-9-9-7-9--12-12---7-7-9-9-7-9--3--3---||
										       *  *

D|-------------------------------------------||	D|-------------------------------------------||
A|-------------------------------------------||	A|-------------------------------------------||
F|-------------------------------------------||	F|-------------------------------------------||
C|---7-7-9-9-7-9--12-12---7-7-9-9-7-9--3-3---||	C|---7-7-9-9-7-9--12-12---7-7-9-9-7-9--3-3---|| 
G|---7-7-9-9-7-9--12-12---7-7-9-9-7-9--3-3---||	G|---7-7-9-9-7-9--12-12---7-7-9-9-7-9--3-3---||
C|---7-7-9-9-7-9--12-12---7-7-9-9-7-9--3-3---||	C|---7-7-9-9-7-9--12-12---7-7-9-9-7-9--3-3---||


Verso:

D|-------------------|-------------------||	D|-------------------|-------------------||
A|-------------------|-------------------||	A|-------------------|-------------------||
F|----------7-7/0----|-------------------||	F|----------7-7/0----|-------------------||
C|--9-9-7-9-7-7/0----|--9-9-7-9-7--3-3---||	C|--9-9-7-9-7-7/0----|--9-9-7-9-7--------||
G|--9-9-7-9-5-5/0----|--9-9-7-9-7--3-3---||	G|--9-9-7-9-5-5/0----|--9-9-7-9-7--------||
C|--9-9-7-9----------|--9-9-7-9-7--3-3---||	C|--9-9-7-9----------|--9-9-7-9-7--------||


D|-------------------|-------------------||	D|-------------------|-------------------||
A|-------------------|-------------------||	A|-------------------|-------------------||
F|----------7-7/0----|-------------------||	F|----------7-7/0----|-------------------||	
C|--9-9-7-9-7-7/0----|--9-9-7-9-7--3-3---||	C|--9-9-7-9-7-7/0----|--9-9-7-9-7--3-3---||	
G|--9-9-7-9-5-5/0----|--9-9-7-9-7--3-3---||	G|--9-9-7-9-5-5/0----|--9-9-7-9-7--3-3---||	
C|--9-9-7-9----------|--9-9-7-9-7--3-3---||	C|--9-9-7-9----------|--9-9-7-9-7--3-3---||


Punte:

D|-------------------------------------------||	D|------------------------------------||
A|-------------------------------------------||	A|------------------------------------||
F|-------------------------------------------||	F|------------------------------------||
C|---7-7-9-9-7-9--12-12---7-7-9-9-7-9--3-3---||	C|---7-7-9-9-7-9--12-12---9-12-14-15--|| 
G|---7-7-9-9-7-9--12-12---7-7-9-9-7-9--3-3---||	G|---7-7-9-9-7-9--12-12---9-12-14-15--||
C|---7-7-9-9-7-9--12-12---7-7-9-9-7-9--3-3---||	C|---7-7-9-9-7-9--12-12---9-12-14-15--||

Verso:

D|-------------------|-------------------||	D|-------------------|-------------------||
A|-------------------|-------------------||	A|-------------------|-------------------||
F|----------7-7/0----|-------------------||	F|----------7-7/0----|-------------------||
C|--9-9-7-9-7-7/0----|--9-9-7-9-7--3-3---||	C|--9-9-7-9-7-7/0----|--9-9-7-9-7--------||
G|--9-9-7-9-5-5/0----|--9-9-7-9-7--3-3---||	G|--9-9-7-9-5-5/0----|--9-9-7-9-7--------||
C|--9-9-7-9----------|--9-9-7-9-7--3-3---||	C|--9-9-7-9----------|--9-9-7-9-7--------||


D|-------------------|-------------------||	D|-------------------|-------------------||
A|-------------------|-------------------||	A|-------------------|-------------------||
F|----------7-7/0----|-------------------||	F|----------7-7/0----|-------------------||	
C|--9-9-7-9-7-7/0----|--9-9-7-9-7--3-3---||	C|--9-9-7-9-7-7/0----|--9-9-7-9-7--3-3---||	
G|--9-9-7-9-5-5/0----|--9-9-7-9-7--3-3---||	G|--9-9-7-9-5-5/0----|--9-9-7-9-7--3-3---||	
C|--9-9-7-9----------|--9-9-7-9-7--3-3---||	C|--9-9-7-9----------|--9-9-7-9-7--3-3---||


Puente2:

D|-----------------------------------||
A|-----------------------------------||
F|-----------------------------------||
C|--2-1-0--2-1-0--2-1-0-1/3-3-3-0----||
G|--2-1-0--2-1-0--2-1-0-1/3-3-3-0----||
C|--2-1-0--2-1-0--2-1-0-1/3-3-3-0----||

D|-----------------------------------||
A|-----------------------------------||
F|-----------------------------------||
C|--5-6-6--5-6-6---3p0-0-3p0-0-3p0---|| 
G|--5-6-6--5-6-6---3p0-0-3p0-0-3p0---||
C|--5-6-6--5-6-6---3p0-0-3p0-0-3p0---||
   /_______________________________/
		 x4

Guitarra Sola:

D|--------------------------------------|-------------------------------------||
A|--------------------------------------|-------------------------------------||
F|----------?---------------------------|-------------------------------------||
C|----------?---------------------------|-------------------------------------|| 
G|----------?---------------------------|-------------------------------------||
C|--------------------------------------|-------------------------------------||


Puente2:

D|-----------------------------------||
A|-----------------------------------||
F|-----------------------------------||
C|--2-1-0--2-1-0--2-1-0-1/3-3-3-0----||
G|--2-1-0--2-1-0--2-1-0-1/3-3-3-0----||
C|--2-1-0--2-1-0--2-1-0-1/3-3-3-0----||

D|-----------------------------------||
A|-----------------------------------||
F|-----------------------------------||
C|--5-6-6--5-6-6---3p0-0-3p0-0-3p0---|| 
G|--5-6-6--5-6-6---3p0-0-3p0-0-3p0---||
C|--5-6-6--5-6-6---3p0-0-3p0-0-3p0---||
   /_______________________________/
		 x4

Punte3:

D|------------------------------------||
A|------------------------------------||
F|------------------------------------||
C|--2-1-0-1-2-1-0-1-2-1-0-1/3-3-3-0---||
G|--2-1-0-1-2-1-0-1-2-1-0-1/3-3-3-0---||
C|--2-1-0-1-2-1-0-1-2-1-0-1/3-3-3-0---||

Dist. Suave	x2
Muteado		x2
Distorcion	x3
Muteado		x1

Final:

D|-------------------------------------|-----------------------------------------||
A|-------------------------------------|-----------------------------------------||
F|-------------------------------------|-----------------------------------------||
C|---2-2-2--2-2-2--2-2-2--2/3-3-3-0----|---7-7-9-9-7-9--12-12--7-7-9-9-7-9--3-3--|| 
G|---2-2-2--2-2-2--2-2-2--2/3-3-3-0----|---7-7-9-9-7-9--12-12--7-7-9-9-7-9--3-3--||
C|---2-2-2--2-2-2--2-2-2--2/3-3-3-0----|---7-7-9-9-7-9--12-12--7-7-9-9-7-9--3-3--||
     * *    * *    * *

D|-------------------------------------|-------------------------------------------||
A|-------------------------------------|-------------------------------------------||
F|-------------------------------------|-------------------------------------------||
C|---2-2-2--2-2-2--2-2-2--2/3-3-3-0----|---7-7-9-9-7-9--12-12--7-7-9-9-7-9---15/0--|| 
G|---2-2-2--2-2-2--2-2-2--2/3-3-3-0----|---7-7-9-9-7-9--12-12--7-7-9-9-7-9---15/0--||
C|---2-2-2--2-2-2--2-2-2--2/3-3-3-0----|---7-7-9-9-7-9--12-12--7-7-9-9-7-9---15/0--||
     * *    * *    * *
 
 
Cabezones - Ojos En Mi Espalda :: indexed at Ultimate Guitar.
Ojos En Mi Espalda tabs @ 911Tabs
People who played Cabezones - Ojos En Mi Espalda also played these songs by Cabezones:
Abismo Tab, Pasajero En Extincion Chords, Pasajero En Extincion Chords, Lunes Chords, Mi Pequea Infinidad Chords, Globo Tab

Quick tip, so you can enjoy Ojos En Mi Espalda even more:

If you spend just 10 seconds to register, you will be able to comment on all the chords and tabs and rate them. You will as well be able to comment on videos of your fellow guitarists and give them ratings from 1 to 5 ... And - of course - you can share your own videos with them and see what they think of you. :)
Click here to join us!

Show us your talent, perform Ojos En Mi Espalda!

Here you can post a video or audio performance. Tell me more ...
Where can we find your performance? Tell me more ...
Your comment:
Please, log in to post your performance.