Artists by letter: A B C D E F G H I J K L M N O P Q R S T U V W X Y Z 0-9

 
Irte
*   Palm Mute (muteo)
b   Bend (estirada)
~   Vibrato
h   Hamer on (martillar)
p   Pull off (ligar)

AfinaciĆ³n: D A F C G C

Verso:

		  Si te vas...				
D|-------------------------------------|-------------------------------------||
A|-------11-11---11--------11-11---11--|-------8-8---8--------8-8---8--------||
F|-------10-10---10--------10-10---10--|-------7-7---7--------7-7---7--------||
C|---8-8-------8-------8-8-------8-----|---5-5-----5------5-5-----5----------|| x2
G|---8-8-------8-------8-8-------8-----|---5-5-----5------5-5-----5----------||
C|---8-8-------8-------8-8-------8-----|---5-5-----5------5-5-----5----------||

D|-------------------------------------|-------------------------------------||
A|-------4-4----4----------4-4----4----|-------6-6---6--------6-6---6--------||
F|-------3-3----3----------3-3----3----|-------5-5---5--------5-5---5--------||
C|---1-1------1--------1-1------1------|---3-3-----3------3-3-----3----------|| x2
G|---1-1------1--------1-1------1------|---3-3-----3------3-3-----3----------||
C|---1-1------1--------1-1------1------|---3-3-----3------3-3-----3----------||

D|-------------------------------------|-------------------------------------||
A|-------11-11---11--------11-11---11--|-------8-8---8--------8-8---8--------||
F|-------10-10---10--------10-10---10--|-------7-7---7--------7-7---7--------||
C|---8-8-------8-------8-8-------8-----|---5-5-----5------5-5-----5----------|| x2
G|---8-8-------8-------8-8-------8-----|---5-5-----5------5-5-----5----------||
C|---8-8-------8-------8-8-------8-----|---5-5-----5------5-5-----5----------||

Puente:

Peimero le mete Wah-Wah y despues hace algo como esto:

			   y al despertar
D|---------------------------------------------------------------------------||
A|---------------------------------------------------------------------------||
F|---------------------------------------------------------------------------||
C|--/-8-8-8-8-8-8-8-8--5-5-5-5-5-5-5-5-8-8-8-8-8-8-8-8-5-5-5-5-5-5-5-5-------|| 
G|--/-8-8-8-8-8-8-8-8--5-5-5-5-5-5-5-5-8-8-8-8-8-8-8-8-5-5-5-5-5-5-5-5-------||
C|--/-8-8-8-8-8-8-8-8--5-5-5-5-5-5-5-5-8-8-8-8-8-8-8-8-5-5-5-5-5-5-5-5-------||

y algo mas...

Estribillo:
(Una guitarra hace el punteo mientras la otra los acordes)

D|-------------------------------------|-------------------------------------||
A|-------------------------------------|-------------------------------------||
F|--------3-----3-------------3--------|-------------------------------------||
C|------1---1----1--------3-----3------|-------8--10--10-12---7-----8p7-5-0--|| x2
G|----1-------1---------3---------3-0--|-----8-------8------------5----------||
C|--1---------------1/3----------------|---8----------------5---5------------||

D|-------------------------------------|-------------------------------------||
A|-------------------------------------|-------------------------------------||
F|--------3-----3----------3-----3-----|-----5~------------------------------||
C|--1-1-1-1-1-1-1-1--1-1-1-1-1-1-1-1---|---3~--------------------------------|| 
G|--1-1-1-1-1-1-1-1--1-1-1-1-1-1-1-1---|---3~--------------------------------||
C|--1-1-1-1-1-1-1-1--1-1-1-1-1-1-1-1---|---3~--------------------------------||

Verso:

Si te vas...				
D|-------------------------------------|-------------------------------------||
A|-------11-11---11--------11-11---11--|-------8-8---8--------8-8---8--------||
F|-------10-10---10--------10-10---10--|-------7-7---7--------7-7---7--------||
C|---8-8-------8-------8-8-------8-----|---5-5-----5------5-5-----5----------|| x2
G|---8-8-------8-------8-8-------8-----|---5-5-----5------5-5-----5----------||
C|---8-8-------8-------8-8-------8-----|---5-5-----5------5-5-----5----------||

D|-------------------------------------|-------------------------------------||
A|-------4-4----4----------4-4----4----|-------6-6---6--------6-6---6--------||
F|-------3-3----3----------3-3----3----|-------5-5---5--------5-5---5--------||
C|---1-1------1--------1-1------1------|---3-3-----3------3-3-----3----------|| x2
G|---1-1------1--------1-1------1------|---3-3-----3------3-3-----3----------||
C|---1-1------1--------1-1------1------|---3-3-----3------3-3-----3----------||

-------------Puente------------

Estribillo:

D|-------------------------------------|-------------------------------------||
A|-------------------------------------|-------------------------------------||
F|--------3-----3-------------3--------|-------------------------------------||
C|------1---1----1--------3-----3------|-------8--10--10-12---7-----8p7-5-0--|| x2
G|----1-------1---------3---------3-0--|-----8-------8------------5----------||
C|--1---------------1/3----------------|---8----------------5---5------------||

D|-------------------------------------|-------------------------------------||
A|-------------------------------------|-------------------------------------||
F|--------3-----3----------3-----3-----|-----5~------------------------------||
C|--1-1-1-1-1-1-1-1--1-1-1-1-1-1-1-1---|---3~--------------------------------|| 
G|--1-1-1-1-1-1-1-1--1-1-1-1-1-1-1-1---|---3~--------------------------------||
C|--1-1-1-1-1-1-1-1--1-1-1-1-1-1-1-1---|---3~--------------------------------||

Punteo Final:
(Efecto limpio o Acustico)
D|-------------------------------------|-------------------------------------||
A|-------------------------------------|-------------------------------------||
F|--------3-----3-------------3--------|-------------------------------------||
C|------1---1----1--------3-----3------|-------8--10--10-12---7-----8p7------|| x2
G|----1-------1---------3---------3-0--|-----8-------8------------5-----5-0--||
C|--1---------------1/3----------------|---8----------------5---5------------||

D|-------------------------------------|-------------------------------------||
A|-------------------------------------|-------------------------------------||
F|------3-----3--------3-----3---------|-----5~------------------------------||
C|--------1-----1--------1-----1-------|---3~--------------------------------|| 
G|----1-----1--------1-----1-----------|---3~--------------------------------||
C|--1--------------1-------------------|---3~--------------------------------||

Lokos espero que si no esta correctamente sacado aunque sea les ayude en algo!!!
 
 
Cabezones - Irte :: indexed at Ultimate Guitar.
Irte tabs @ 911Tabs

Quick tip, so you can enjoy Irte even more:

Try out the AutoScroller option ... It scrolls the page for you, so you can totally focus on nailing that solo. You can choose among different speeds using your mouse or your keyboard (keys 0, 1, 2 and 3).

Show us your talent, perform Irte!

Here you can post a video or audio performance. Tell me more ...
Where can we find your performance? Tell me more ...
Your comment:
Please, log in to post your performance.