Artists by letter: A B C D E F G H I J K L M N O P Q R S T U V W X Y Z 0-9

 
Ella Se Olvido De Mi
AfinaciĆ³n: D A F C G C

*   Palm Mute (muteo)
b   Bend (estirada)
~   Vibrato
h   Hamer on (martillar)
p   Pull off (ligar)

Intro:
D|------------------------|--------------------------||
A|------------------------|--------------------------||
F|------------------------|--------------------------||
C|--0-0-10-0-0-10-0-10----|--0-0-3-3-8-5-5-----------|| 
G|--0-0-10-0-0-10-0-10----|--0-0-3-3-8-5-5-----------||
C|--0-0-10-0-0-10-0-10----|--0-0-3-3-8-5-5-----------||

D|------------------------|--------------------------||
A|------------------------|--------------------------||
F|------------------------|--------------------------||
C|--0-0-10-0-0-10-0-10----|--0-0-3-3-5-8-8-----------|| 
G|--0-0-10-0-0-10-0-10----|--0-0-3-3-5-8-8-----------||
C|--0-0-10-0-0-10-0-10----|--0-0-3-3-5-8-8-----------||

Las primeras 3 veces con un efecto que creo que se llama Phase
las otras 2 con distorciĆ³n

Verso:
Bajo solo

Estribillo:
D|------------------------|--------------------------||
A|------------------------|--------------------------||
F|------------------------|--------------------------||
C|--0-0-10-0-0-10-0-10----|--0-0-3-3-8-5-5-----------|| 
G|--0-0-10-0-0-10-0-10----|--0-0-3-3-8-5-5-----------||
C|--0-0-10-0-0-10-0-10----|--0-0-3-3-8-5-5-----------||

D|------------------------|--------------------------||
A|------------------------|--------------------------||
F|------------------------|--------------------------||
C|--0-0-10-0-0-10-0-10----|--0-0-3-3-5-8-8-----------|| 
G|--0-0-10-0-0-10-0-10----|--0-0-3-3-5-8-8-----------||
C|--0-0-10-0-0-10-0-10----|--0-0-3-3-5-8-8-----------||

Dos veses

Verso:
Bajo solo

Estribillo:
D|------------------------|--------------------------||
A|------------------------|--------------------------||
F|------------------------|--------------------------||
C|--0-0-10-0-0-10-0-10----|--0-0-3-3-8-5-5-----------|| 
G|--0-0-10-0-0-10-0-10----|--0-0-3-3-8-5-5-----------||
C|--0-0-10-0-0-10-0-10----|--0-0-3-3-8-5-5-----------||

D|------------------------|--------------------------||
A|------------------------|--------------------------||
F|------------------------|--------------------------||
C|--0-0-10-0-0-10-0-10----|--0-0-3-3-5-8-8-----------|| 
G|--0-0-10-0-0-10-0-10----|--0-0-3-3-5-8-8-----------||
C|--0-0-10-0-0-10-0-10----|--0-0-3-3-5-8-8-----------||

Dos Veses

Estribillo 2:
			      x
D|------------------------------|-------------------||
A|------------------------------|-------------------||
F|-7-7-7-7-7-7-7----------------|-------------------||
C|-7-7-7-7-7-7-7-3-3-3-3-3-3-3--|--5-5-5-5-3-3-3----|| 
G|-5-5-5-5-5-5-5-3-3-3-3-3-3-3--|--5-5-5-5-3-3-3----||
C|---------------3-3-3-3-3-3-3--|--5-5-5-5-3-3-3----||
				   * * * * * * * 
Punteo:
D|---------------------------|------------------------------||
A|---------------------------|------------------------------||
F|---------------------------|------------------------------||
C|-------0-----5b6-6-6-3-5---|-------0---0-2-3-3/5~---------|| 
G|-----0---0-----------------|-----0---0--------------------||
C|---0-----------------------|---0--------------------------||

D|---------------------------|------------------------------||
A|---------------------------|------------------------------||
F|---------------------------|------------------------------||
C|-------0-----5b6-6-6-3-5---|-------0---0--8-8-3-3-8-5-5---|| 
G|-----0---0-----------------|-----0---0-0--8-8-3-3-8-5-5---||
C|---0-----------------------|---0-------0--8-8-3-3-8-5-5---||
					    * * * * * * *

Estribillo:

D|------------------------|--------------------------||
A|------------------------|--------------------------||
F|------------------------|--------------------------||
C|--0-0-10-0-0-10-0-10----|--0-0-3-3-8-5-5-----------|| 
G|--0-0-10-0-0-10-0-10----|--0-0-3-3-8-5-5-----------||
C|--0-0-10-0-0-10-0-10----|--0-0-3-3-8-5-5-----------||

D|------------------------|--------------------------||
A|------------------------|--------------------------||
F|------------------------|--------------------------||
C|--0-0-10-0-0-10-0-10----|--0-0-3-3-5-8-8-----------|| 
G|--0-0-10-0-0-10-0-10----|--0-0-3-3-5-8-8-----------||
C|--0-0-10-0-0-10-0-10----|--0-0-3-3-5-8-8-----------||

D|------------------------|--------------------------||
A|------------------------|--------------------------||
F|------------------------|--------------------------||
C|--0-0-10-0-0-10-0-10----|--0-0-3-3-8-5-5-----------|| 
G|--0-0-10-0-0-10-0-10----|--0-0-3-3-8-5-5-----------||
C|--0-0-10-0-0-10-0-10----|--0-0-3-3-8-5-5-----------||

D|------------------------|--------------------------||
A|------------------------|--------------------------||
F|------------------------|--------------------------||
C|--0-0-10-0-0-10-0-10----|--0-0-3-3-5-8-8-----------|| 
G|--0-0-10-0-0-10-0-10----|--0-0-3-3-5-8-8-----------||
C|--0-0-10-0-0-10-0-10----|--0-0-3-3-5-8-8-----------||
D|------------------------|--------------------------||
A|------13-----13---13----|--------------------------||
F|------12-----12---12----|--------------------------||
C|--0-0-10-0-0-10-0-10----|--0-0-3-3-8-5-5-----------|| 
G|--0-0----0-0----0-------|--0-0-3-3-8-5-5-----------||
C|--0-0----0-0----0-------|--0-0-3-3-8-5-5-----------||

D|------------------------|--------------------------||
A|------13-----13---13----|--------------------------||
F|------12-----12---12----|--------------------------||
C|--0-0-10-0-0-10-0-10----|--0-0-3-3-5-8-8-----------|| 
G|--0-0----0-0----0-------|--0-0-3-3-5-8-8-----------||
C|--0-0----0-0----0-------|--0-0-3-3-5-8-8-----------||

D|------------------------|--------------------------||
A|------13-----13---13----|--------------------------||
F|------12-----12---12----|--------------------------||
C|--0-0-10-0-0-10-0-10----|--0-0-3-3-8-5-5-----------|| 
G|--0-0----0-0----0-------|--0-0-3-3-8-5-5-----------||
C|--0-0----0-0----0-------|--0-0-3-3-8-5-5-----------||

D|------------------------|--------------------------||
A|------13-----13---13----|--------------------------||
F|------12-----12---12----|--------------------------||
C|--0-0-10-0-0-10-0-10----|--0-0-3-3-5-8-8-------0~--|| 
G|--0-0----0-0----0-------|--0-0-3-3-5-8-8-------0~--||
C|--0-0----0-0----0-------|--0-0-3-3-5-8-8-------0~--||


Lokos espero que si no esta correctamente sacado aunque sea les ayude en algo
 
 
Cabezones - Ella Se Olvido De Mi :: indexed at Ultimate Guitar.
Ella Se Olvido De Mi tabs @ 911Tabs
People who played Cabezones - Ella Se Olvido De Mi also played these songs by Cabezones:
Abismo Tab, Pasajero En Extincion Chords, Pasajero En Extincion Chords, Lunes Chords, Mi Pequea Infinidad Chords, Globo Tab

Quick tip, so you can enjoy Ella Se Olvido De Mi even more:

You might want to transpose the song if it is too high or too low for you to sing. Just click the desired option while playing a song and all the chords will automatically be transponded into a new key.

Show us your talent, perform Ella Se Olvido De Mi!

Here you can post a video or audio performance. Tell me more ...
Where can we find your performance? Tell me more ...
Your comment:
Please, log in to post your performance.