Artists by letter: A B C D E F G H I J K L M N O P Q R S T U V W X Y Z 0-9

 
Bienvenidos
#----------------------------------PLEASE NOTE--------------------------------#
#This file is the author's own work and represents their interpretation of the#
#song. You may only use this file for private study, scholarship, or research.#
#-----------------------------------------------------------------------------#
#-- File created with Instab -  --#
#-----------------------------------------------------------------------------#

Author/Artist: Cabezones
Title: Bienvenidos
Album: Jardin de extremidad
Transcribed by: g0m4_silencio
Email: [email protected]

-|-9----4----1-||--2--|
-|-9----7----4-||--2--|
-|-11---6----3-||--4--|
-|-11---4----1-||--4--|
-|-9----4----1-||--2--|
-|-9----4----1-||--2--|
   Intro         En la ultima.

-|-----------------|-------------------------------------|
-|-----------------|-------------------------------------|
-|---66----2-------|-6-8-9--6-8-9--6-8-9--6-8-9--6-8-9-6-|
-|--6-----2-----66-|-------------------------------------|
-|-4-----0-----4---|-------------------------------------|
-|-x-----x----4----|-------------------------------------|
   Estrofa                Detalle antes del estribo

-|----------|------------------------|---2-----|
-|----------|------------------------|---5-----|
-|-6--2--6--|-6---6----3--6--6---3---|---4-----|
-|-6--2--4--|-4---4----1--4--4---1---|---2-----|
-|-4--0--4--|-2---4----1--2--4---1---|---2-----|
-|-x--x--4--|-x---4----1--x--4---1---|---2-----|
  a ver...        dejame...  (sigue)/ Sangrando en tu honor

-|---------------------|-----------------|
-|---------------------|-----------------|
-|----------------6----|-----------------|
-|---------4--1---6--2-|-----------------|
-|---------4--1---4--2-|-----------------|
-|---------4--1---x--2-|-----------------|
  solo estoy..(un par de veces)y estribo final.-
 
 
Cabezones - Bienvenidos :: indexed at Ultimate Guitar.
Bienvenidos tabs @ 911Tabs
People who played Cabezones - Bienvenidos also played these songs by Cabezones:
Abismo Tab, Pasajero En Extincion Chords, Pasajero En Extincion Chords, Lunes Chords, Mi Pequea Infinidad Chords, Globo Tab

Quick tip, so you can enjoy Bienvenidos even more:

If you don't really know how to deal with "Absus4" chord and his equally confusing brothers, just put the mouse cursor over them and you will be shown a helpful chord diagram.

Show us your talent, perform Bienvenidos!

Here you can post a video or audio performance. Tell me more ...
Where can we find your performance? Tell me more ...
Your comment:
Please, log in to post your performance.