Artists by letter: A B C D E F G H I J K L M N O P Q R S T U V W X Y Z 0-9

Wet Hands Minecraft (ver 3) - C418


 
Wet Hands Minecraft
    A lot of correction of this beautiful song by C418 in the popular game 
Minecraft. Also include chords for you. I made it more fit the piano 
version (I played it on the piano). Hope you enjoy my first tab!
 



   A                 Amaj9             A                 Amaj9
*|-----------------|-------0---------|-----------------|-------0---------|
*|-------0-2-0-----|-----2---2-------|-------0-2-0-----|-----2---2-------|
*|-----2-------2---|---2-------2-L---|-----2-------2---|---2-------2-L---|
*|---2-----------2-|-0---------------|---2-----------2-|-0---------------|
*|-0---------------|-----------------|-0---------------|-----------------|
*|-----------------|-----------------|-----------------|-----------------|


  
   Amaj7             Dmaj7             Amaj7             Dmaj7
*|-4-----------5---|-2-----------0-2-|-4---------------|---------------0-|
*|-----------------|-----2-----------|-------------0-2-|-----2-------2---|
*|-----2---------2-|---2---2---2-----|-----2-----------|---2---2---2-----|
*|---2---2---2-----|-0-------0-------|---2---2---2-----|-0-------0-------|
*|-0-------0-------|-----------------|-0-------0-------|-----------------|
*|-----------------|-----------------|-----------------|-----------------|



   G                 G9                G                 G9
*|-3-----2---------|-----------------|-3---2-----------|-----------------|
*|---------3-----0-|-L-------0-------|-3-------3-----0-|-L---------------|
*|-----0-----0-2---|-----2---2-------|-0-----0---0-2---|-----2-------2---|
*|---0-------------|---0---0-0-------|---0-------------|---0---0---0-----|
*|-----------------|-----------------|-----------------|-----------------|
*|-3---------------|-3---------------|-3---------------|-3-------3---3---|


  
   A                                   Bm        
*|-----------------|-----------0-5-9-|-------------0-2-|-----------------|
*|-------0-2-0-----|-------0-2-------|-3-----2---------|---3-----------2-|
*|-----2-------2---|-----2-----------|-----4---2-------|-------4---4-4---|
*|---2-----------2-|---2-------------|---4-------2-----|-----4---4-------|
*|-0---------------|-0---------------|-2---------------|-2---------------|
*|-----------------|-----------------|-----------------|-----------------|


  
   G                 A                 E
*|-----------2-----|-----------------|-----------------|-----------------|
*|-3---2-3-------3-|-2-----------0---|-0-------0-------|---------0-------|
*|-----------------|-2-------------2-|-------1---1-----|-------1---1-----|
*|---0---------0---|-2---------------|-----2-------2---|-----2-----------|
*|-----------------|-0---------------|---2-----------2-|---2---------2---|
*|-3-------3-------|-----------------|-0---------------|-0---------------|


  
   G                 A                 E 
*|-3-2-0---0---0-2-|---0-----5-------|-4-0-------------|-----------------|
*|-------3---3-----|-----------5-----|-----0-----------|-0---------------|
*|-----------------|-------------6---|-------1---------|---1-------------|
*|---------0-------|-------7-------7-|-----2---2-------|-----2---2-------|
*|-----------------|-0---7-----------|---2---2---------|---2-2-2-2-------|
*|-3---------------|-----------------|-0-------0-------|-0-------0-------|


 
   E
*|-------0---------|-------0---------*|
*|-----0---0-------|-----0---0-------*|
*|---1-------1-L---|---1-------1-L---*|
*|-----------------|-----------------*|
*|-----------------|-----------------*|
*|-0---------------|-0---------------*|
 
 
C418 - Wet Hands Minecraft :: indexed at Ultimate Guitar.
Wet Hands Minecraft tabs @ 911Tabs
People who played C418 - Wet Hands Minecraft also played these songs by C418:
Minecraft Tab, Wet Hands Minecraft Tab, Dry Hands Tab, Piano 2 Tab, Danny Tab, Wet Hands Minecraft Tab

Quick tip, so you can enjoy Wet Hands Minecraft even more:

After the registration (which takes just 10 seconds, remember?) you will be able to use your profile - your very own piece of YourChords.com.

Show us your talent, perform Wet Hands Minecraft!

Here you can post a video or audio performance. Tell me more ...
Where can we find your performance? Tell me more ...
Your comment:
Please, log in to post your performance.