Artists by letter: A B C D E F G H I J K L M N O P Q R S T U V W X Y Z 0-9

 
Wet Hands
(RHYTHM)
                                                    x2
e|-----------------------------------0--------|
B|-----------0--2--0--------------2-----2-----|
G|--------2-----------2--------------------2--|   x4
D|-----------------------2-----4--------------|
A|-----4--------------------5-----------------|
E|--5-----------------------------------------|

e|--------------------------------------------|
B|--------------------------------------------|
G|----------------2-----------------------2---|   x2
D|----------0--4-----4--0-----------0--4------|
A|-------2-----------------2-----2------------|
E|----3-----------------------3---------------|

e|-----------------------------------------0--|
B|-----------0--2--0--------------------2-----|
G|--------2-----------2--------------2--------|
D|-----------------------2--------2-----------|
A|-----4-----------------------4--------------|
E|--5-----------------------5-----------------|

e|-------------------|------------------------|
B|---------------2---|------------------------|
G|------------2------|------------0--2--------|
D|------0--4---------|---------0---------2----|
A|---2---------------|------2------------0----|
E|-------------------|---3--------------------|

                              x2
e|---------------------------------|---------------------|--------------------|-------------|
B|---------------------------------|---------------------|--------0-2-0-------|-------------|
G|----------1---------------1------|----------2----------|------2-------2-----|----------1--|
D|--------2---2-----------2---2----|------0-4---4-0------|----------------2---|--------2----|
A|------2-------2-------2-------0--|----2-------------2--|----4---------------|------2------|
E|--0-4-----------4-0-4------------|--3------------------|--5-----------------|--0-4--------|


(LEAD)

e|--4--5-----------4--7--9-----9--12--15--14--------------15--14-----------------------|
B|--------7--5--7-----------7----------------15------------------15----------------10--|
G|-----------------------------------------------14--16-------------14--16--14---------|
D|------------------------------------------------------------------------------14-----|
A|-------------------------------------------------------------------------------------|
E|-------------------------------------------------------------------------------------|

e|--9--10--9---------------------------------------------3--2--0-----0-----0--2--0--5--|
B|-----------10---------------------------7-----------------------3-----3--------------|
G|---------------9--11--7-----6--7--6--7-----6--4--2--4--------------------------------|
D|--------------------------9----------------------------------------------------------|
A|-------------------------------------------------------------------------------------|
E|-------------------------------------------------------------------------------------|

e|--4-----------------------------|
B|-----5--------------------------|
G|--------4--------4--------------|
D|-----------6--------6-----------|
A|--------------7--------7-----7--|
E|--------------------------7--7--|
 
 
C418 - Wet Hands :: indexed at Ultimate Guitar.
Wet Hands tabs @ 911Tabs
People who played C418 - Wet Hands also played these songs by C418:
Minecraft Tab, Wet Hands Minecraft Tab, Dry Hands Tab, Piano 2 Tab, Danny Tab, Wet Hands Minecraft Tab

Quick tip, so you can enjoy Wet Hands even more:

Try out the AutoScroller option ... It scrolls the page for you, so you can totally focus on nailing that solo. You can choose among different speeds using your mouse or your keyboard (keys 0, 1, 2 and 3).

Show us your talent, perform Wet Hands!

Here you can post a video or audio performance. Tell me more ...
Where can we find your performance? Tell me more ...
Your comment:
Please, log in to post your performance.