Artists by letter: A B C D E F G H I J K L M N O P Q R S T U V W X Y Z 0-9

 
Dry Hands
    Em7    A7    D      Asus2
e|-----------------------------------------------------------------|
B|--0--1--3-----3--1--0-----0--------3--1--0--------3--------------|
G|--0-----0--2--2--------2--------0-----------2-----2--------2-----|
D|--0-----2-----0--------2-----2--------------------0-----------0--|
A|--------0--------------0-----------------------0-----3--2--------|
E|--0--------------------------0--------------3--------------3-----|


e|---------3--5-----3--------------------------------------------------------------------|
B|--5------------------3--5-----3--5--------3-----1--0--------0-----------------------3--|
G|-----4---------------------------------------4--------2--0-----2--0--------4-----------|
D|---------------0--------------------------------------0--------------0--2-----0--2-----|
A|--3------------------------3--------0--2--3-----------------------------0--------0-----|
E|------------0-----------5--------5--------------------0--------------------------------|


e|----------------------0----|
B|--0--1--3-----3>-----0-----|
G|--0-----0-----2>----0------|
D|--0-----2--2--0>---0-------|
A|--------0---------2--------|
E|--0---------------------0--|



************************************
| >   Accented note
************************************
 
 
C418 - Dry Hands :: indexed at Ultimate Guitar.
Dry Hands tabs @ 911Tabs
People who played C418 - Dry Hands also played these songs by C418:
Minecraft Tab, Wet Hands Minecraft Tab, Dry Hands Tab, Piano 2 Tab, Danny Tab, Wet Hands Minecraft Tab

Quick tip, so you can enjoy Dry Hands even more:

You might want to transpose the song if it is too high or too low for you to sing. Just click the desired option while playing a song and all the chords will automatically be transponded into a new key.

Show us your talent, perform Dry Hands!

Here you can post a video or audio performance. Tell me more ...
Where can we find your performance? Tell me more ...
Your comment:
Please, log in to post your performance.