Artists by letter: A B C D E F G H I J K L M N O P Q R S T U V W X Y Z 0-9

 
Karate
-------------------------------------------------------------------------------
                             Babymetal - Karate
-------------------------------------------------------------------------------

Tabbed by: Andre Oksnes
Tuning: Standard 7 string
Video of me playing it: https://www.youtube.com/watch?v=9g2v2NyvQMg


[FADE IN GUITAR 1]

e|----|
B|----|
G|----|
D|----|
A|-2--|
E|-2--|
B|-0--|


[FADE IN GUITAR 2]

e|--------------------------------------------|
B|--------------------------------------------|
G|--------------------------------------------|
D|--------------------------------------------|
A|--------------------------------------------|
E|--------------------------------------------|
B|+2+2+2+2+2+2+2+2+2+2+2+2+2------------------|
   

[INTRO]

e|-------------------------------------------------------|
B|-------------------------------------------------------|
G|-------------------------------------------------------|
D|-------------------------------------------------------|
A|-----2-----------2-------------------------------------|
E|-------------------------5-----2-2-2--2--2-2-2--2-2-2--|
B|-3b4----1-3b4-0----3-3b4---4---1-1-1--1--1-1-1--1-1-1--|
                              PM|----------------------| 

e|------------------------------------------------------|
B|------------------------------------------------------|
G|------------------------------------------------------|
D|------------------------------------------------------|
A|-----2-----------2------------------------------------|
E|-------------------------5------------------+3pb5br3--|
B|-3b4----1-3b4-0----3-3b4---4--xxx-xxx-3-1-0-----------|
                                               

e|-------------------------------------------------------|
B|-------------------------------------------------------|
G|-------------------------------------------------------|
D|-------------------------------------------------------|
A|-----2-----------2-------------------------------------|
E|-------------------------5-----2-2-2--2--2-2-2--2-2-2--|
B|-3b4----1-3b4-0----3-3b4---4---1-1-1--1--1-1-1--1-1-1--|
                              PM|----------------------| 

e|------------------------------------------------|
B|------------------------------------------------|
G|------------------------------------------------|
D|------------------------------------------------|
A|-----2-----------2------------------------------|
E|-------------------------5----------3-2---------|
B|-3b4----1-3b4-0----3-3b4---4--0-1-4-----3-1-0---|


(LEFT GUITAR)
e|-----------------------------------------------|
B|-----------------------------------------------|
G|-----------------------------------------------|
D|-----------------------------------------------|
A|----------------------------6------------------|
E|-2-2-2--2--2------------8p7--------------------|
B|-0-0-0--0--0-----------------------------------|
PM|-----------|


(RIGHT GUITAR)
e|-----------------------------------------------|
B|-----------------------------------------------|
G|-----------------------------------------------|
D|-----------------------------------------------|
A|-----------------------------------------------|
E|----------2-2-2--2--2-------7p5-8--------------|
B|----------0-0-0--0--0--------------------------|
         PM|-----------|

                 
[VERSE FIG.1]

e|-----------------------------------------------|
B|-----------------------------------------------|
G|-----------------------------------------------|
D|-----------------------------------------------|
A|-----------------------------------------------|
E|-----------------------------------------------|
B|-0-0-13-16-0-13-16-0-12-13-0-10-12-0-16-13-----|

e|-----------------------------------------------|
B|-----------------------------------------------|
G|-----------------------------------------------|
D|-----------------------------------------------|
A|-----------------------------------------------|
E|-----------------------------------------------|
B|-0-0-13-16-0-13-16-0-12-13-0-10-12-0-8-7-------|

e|-----------------------------------------------|
B|-----------------------------------------------|
G|-----------------------------------------------|
D|-----------------------------------------------|
A|-----------------------------------------------|
E|-----------------------------------------------|
B|-0-0-13-16-0-13-16-0-12-13-0-10-12-0-16-13-----|

e|-----------------------------------------------|
B|-----------------------------------------------|
G|-----------------------------------------------|
D|-----------------------------------------------|
A|-----------------------------------------------|
E|-----------------------------------------------|
B|-0-0-13-16-0-13-16-0-12-13-0-10-12-0-8-7-------|


[FIG.2]

e|--------------------------------------------------------------------------------|
B|--------------------------------------------------------------------------------|
G|--------------------------------------------------------------------------------|
D|--------------------------------------------------------------------------------|
A|--------------------------------------------------------------------------------|
E|--2------------2-------------------2--2----------------2-----------2------------|
B|--0--0--0-0-0--0---0-0-0----0-0-0--0--0--0-0-0--0-0-0--0----0-0-0--0--0-0-0-0-0-| 
 PM|-----------------------------------------------------------------------------|  
 
e|----------------------------------------------------------------------------------------|
B|----------------------------------------------------------------------------------------|
G|----------------------------------------------------------------------------------------|
D|----------------------------------------------------------------------------------------|
A|---------------------------------------------------------------------------3----5--5-5--|
E|---------------2--------------------2--2-----------------2----------2-2-2--3----5--5-5--|
B|--0--0--0-0-0--0----0-0-0----0-0-0--0--0--0-0-0---0-0-0--0---0-0-0--0-0-0--1----3--3-3--|    
 PM|-----------------------------------------------------------------------|      PM|---|   

 
[LEAD WITH FIG.2]

e|-----------------------------------------------|
B|-----------------------------------------------|
G|---------8-------8-------------------8---------|
D|------10------10------9-10----7-9------10------|
A|-----------------------------------------------|
E|-7-7------7---------7-------7------7--------"--|
B|-----------------------------------------------|
PM|---|  PM|-|     PM|-|   PM|-|  PM|-|

e|-----------------------------------------------|
B|-----------------------------------------------|
G|---------8-------8-----------------------------|
D|------10------10------9-10----7-9--------------|
A|--------------------------------------10-9-----|
E|-7-7------7---------7-------7------7--------"--|
B|-----------------------------------------------|
PM|---|  PM|-|     PM|-|   PM|-|  PM|-|

e|-----------------------------------------------|
B|-----------------------------------------------|
G|---------8-------8-------------------8---------|
D|------10------10------9-10----7-9------10------|
A|-----------------------------------------------|
E|-7-7------7---------7-------7------7--------"--|
B|-----------------------------------------------|
PM|---|  PM|-|     PM|-|   PM|-|  PM|-|

e|-----------------------------------------------|
B|-----------------------------------------------|
G|---------8-------8-----------------------------|
D|------10------10------9-10----7-9--------------|
A|--------------------------------------10-9-----|
E|-7-7------7---------7-------7------7--------"--|
B|-----------------------------------------------|
PM|---|  PM|-|     PM|-|   PM|-|  PM|-|
 
 
[CHORUS]

e|-----------------------------------------------------------|
B|-----------------------------------------------------------|
G|-----------------------------------------------------------|
D|----------------5--5-5-5--5--------------------------------|
A|-3--3-3-3--3----5--5-5-5--5----5--5-5-5--5----7--7-7-7--7--|
E|-3--3-3-3--3----3--3-3-3--3----5--5-5-5--5----7--7-7-7--7--|
B|-1--1-1-1--1-------------------3--3-3-3--3----5--5-5-5--5--|

e|--------------------------------------------------------------|
B|--------------------------------------------------------------|
G|--------------------------------------------------------------|
D|----------------5--5-5-5--5-------------------------4/5-4-----|
A|-3--3-3-3--3----5--5-5-5--5----5--5-5-5--5-----7-7--------5-2-|
E|-3--3-3-3--3----3--3-3-3--3----5--5-5-5--5-----7-7------------|
B|-1--1-1-1--1-------------------3--3-3-3--3-----5-5------------|

e|-----------------------------------------------------------|
B|-----------------------------------------------------------|
G|-----------------------------------------------------------|
D|----------------5--5-5-5--5--------------------------------|
A|-3--3-3-3--3----5--5-5-5--5----5--5-5-5--5----7--7-7-7--7--|
E|-3--3-3-3--3----3--3-3-3--3----5--5-5-5--5----7--7-7-7--7--|
B|-1--1-1-1--1-------------------3--3-3-3--3----5--5-5-5--5--|

e|----------------------------------------------|
B|----------------------------------------------|
G|----------------------------------------------|
D|-7-7-7-7-7-7--9-9-----------------------------|
A|-7-7-7-7-7-7--9-9--10-10-10-10----------------|
E|-5-5-5-5-5-5--7-7--8--8--8--8-----------------|
B|--------------------------------3b4-1-xxx-----|


[1ST CHORUS LEAD]

e|------------------------------------------------------------------|
B|------------------------------------------------------------------|
G|-9-9-9-9-9-9-9-9---11-11-11-11---12-12-12-12----7-7-7-7-7-7-7-7---|
D|------------------------------------------------------------------|
A|-7-7-7-7-7-7-7-7---9--9--9--9----10-10-10-10----5-5-5-5-5-5-5-5---|
E|------------------------------------------------------------------|
B|------------------------------------------------------------------|

e|---------------------------|
B|---------------------------|
G|-14-14-14-14--12-12-12-12--|
D|---------------------------|
A|-12-12-12-12--10-10-10-10--|
E|---------------------------|
B|---------------------------|

e|-------------------------------------------|
B|-------------------------------------------|
G|-9-9-9-9-9-9-9-9--11-11-11-11--12-12-12-12-|
D|-------------------------------------------|
A|-7-7-7-7-7-7-7-7--9--9--9--9---10-10-10-10-|
E|-------------------------------------------|
B|-------------------------------------------|

e|-----------------------------------------------|
B|-----------------------------------------------|
G|-11-11-11-11-11-11-11-11--9-9-9-9--------------|
D|-----------------------------------7/9-7-------|
A|-9--9--9--9--9--9--9--9---7-7-7-7--------9-10--|
E|-----------------------------------------------|
B|-----------------------------------------------|

 
e|----------------------------------------------------------------------|
B|-8-8-8-8-8-8-8-8---12-12-12-12-12-12-12-12---10-10-10-10-10-10-10-10--|
G|----------------------------------------------------------------------|
D|-5-5-5-5-5-5-5-5---9--9--9--9--9--9--9--9----7--7--7--7--7--7--7--7---|
A|----------------------------------------------------------------------|
E|----------------------------------------------------------------------|
B|----------------------------------------------------------------------|

e|------------------------------|
B|-15-15-15-15--13-13---12-12---|
G|------------------------------|
D|-12-12-12-12--10-10---9--9----|
A|------------------------------|
E|------------------------------|
B|------------------------------|

e|-----------------------------------------|
B|-----------------------------------------|
G|--5-5-5-5-5-5--7-7--9-9-9-9--------------|
D|-----------------------------------------|
A|--3-3-3-3-3-3--5-5--7-7-7-7--------------|
E|-----------------------------------------|
B|----------------------------3b4-1-xxx----|


[BACK TO MAIN RIFF]

e|-------------------------------------------------------|
B|-------------------------------------------------------|
G|-------------------------------------------------------|
D|-------------------------------------------------------|
A|-----2-----------2-------------------------------------|
E|-------------------------5-----2-2-2--2--2-2-2--2-2-2--|
B|-3b4----1-3b4-0----3-3b4---4---1-1-1--1--1-1-1--1-1-1--|
                              PM|----------------------| 

e|------------------------------------------------------|
B|------------------------------------------------------|
G|------------------------------------------------------|
D|------------------------------------------------------|
A|-----2-----------2------------------------------------|
E|-------------------------5------------------+3pb5br3--|
B|-3b4----1-3b4-0----3-3b4---4--xxx-xxx-3-1-0-----------|
                                                

e|---------------------------------------------------------|
B|---------------------------------------------------------|
G|---------------------------------------------------------|
D|---------------------------------------------------------|
A|-----2-----------2---------------------------------------|
E|-------------------------5-----2-2--2--2--2-2-2--2-2-2---|
B|-3b4----1-3b4-0----3-3b4---4---1-1--1--1--1-1-1--1-1-1---|
                              PM|-----------------------| 

e|----------------------------------------------|
B|----------------------------------------------|
G|----------------------------------------------|
D|----------------------------------------------|
A|-----2-----------2---------------------+2b3---|
E|-------------------------5----------3---------|
B|-3b4----1-3b4-0----3-3b4---4--0-1-4-----------|
                                           

[2ND VERSE FIG. 3]

e|---------------------------------------------------|
B|---------------------------------------------------|
G|---------------------------------------------------|
D|---------------------------------------------------|
A|---------------------------------------------------|
E|---------------------------------------------------|
B|-0-0-0-0-0---0-0---0-0---0-0-0---0--0-0-0--3pb5br3-|
PM|----------------------------------------|  

e|---------------------------------------------------|
B|---------------------------------------------------|
G|---------------------------------------------------|
D|----------------------------------------------3--2-|
A|----------------------------------------------3--2-|
E|-----------------------3/5--------------------1--0-|
B|-0-0---0-0---0--0-0-0------5b6---0-0-0--0-0--------|
PM|--------------------|        PM|----------| 

e|---------------------------------------------------|
B|---------------------------------------------------|
G|---------------------------------------------------|
D|---------------------------------------------------|
A|---------------------------------------------------|
E|---------------------------------------------------|
B|-0-0-0-0-0---0-0---0-0---0-0-0---0--0-0-0--3pb5br3-|
PM|----------------------------------------|

e|-----------------------------------------------|
B|-----------------------------------------------|
G|-----------------------------------------------|
D|-----------------------------------------------|
A|--------------------------2h3----2-------2b3---| 
E|-----------------------5-------5---3-5---------|
B|-0-0---0-0---0--0-0-0--------------------------|
PM|--------------------|


[LEAD WITH FIG.3]

e|-----------------------------------------------|
B|-----------------------------------------------|
G|---------8-------8-------------------8---------|
D|------10------10------9-10----7-9------10------|
A|-----------------------------------------------|
E|-7-7------7---------7-------7------7--------"--|
B|-----------------------------------------------|
PM|---|  PM|-|     PM|-|   PM|-|  PM|-|

e|-----------------------------------------------|
B|-----------------------------------------------|
G|---------8-------8-----------------------------|
D|------10------10------9-10----7-9--------------|
A|--------------------------------------10-9-----|
E|-7-7------7---------7-------7------7--------"--|
B|-----------------------------------------------|
PM|---|  PM|-|     PM|-|   PM|-|  PM|-|

e|-----------------------------------------------|
B|-----------------------------------------------|
G|---------8-------8-------------------8---------|
D|------10------10------9-10----7-9------10------|
A|-----------------------------------------------|
E|-7-7------7---------7-------7------7--------"--|
B|-----------------------------------------------|
PM|---|  PM|-|     PM|-|   PM|-|  PM|-|

e|------------------------------------------------|
B|------------------------------------------------|
G|---------8-------8------------------------------|
D|------10------10-------9-10-7-9----7------------|
A|--------------------------------10---+10b12-----|
E|-7-7------7---------7---------------------"-----|
B|------------------------------------------------|
PM|---|  PM|-|     PM|-|                 


[FIG. 4]

e|-----------------------------------------------|
B|-----------------------------------------------| 
G|-----------------------------------------------|  
D|-----------------------------------------------|   x4
A|-----------------------------------------------|  
E|--------------------17-------------------------| 
B|-0-0--13-12-0-16-0-----16-0--13-16-------------|

e|--------------|
B|--------------|
G|--------------|
D|--------------|
A|-3---5---5-5--|
E|-3---5---5-5--|
B|-1---3---3-3--|
        PM|---|

                
[LEAD]

e|---------10---------|
B|----8-------8-------|
G|-11---11-------11---|
D|--------------------|
A|--------------------|
E|--------------------|
B|--------------------|
     
     
[CHORUS]

e|-----------------------------------------------------------|
B|-----------------------------------------------------------|
G|-----------------------------------------------------------|
D|----------------5--5-5-5--5--------------------------------|
A|-3--3-3-3--3----5--5-5-5--5----5--5-5-5--5----7--7-7-7--7--|
E|-3--3-3-3--3----3--3-3-3--3----5--5-5-5--5----7--7-7-7--7--|
B|-1--1-1-1--1-------------------3--3-3-3--3----5--5-5-5--5--|

e|-------------------------------------------------------------|
B|-------------------------------------------------------------|
G|-------------------------------------------------------------|
D|----------------5--5-5-5--5------------------------4/5-4-----|
A|-3--3-3-3--3----5--5-5-5--5----5--5-5-5--5----7-7--------5-2-|
E|-3--3-3-3--3----3--3-3-3--3----5--5-5-5--5----7-7------------|
B|-1--1-1-1--1-------------------3--3-3-3--3----5-5------------|

e|-----------------------------------------------------------|
B|-----------------------------------------------------------|
G|-----------------------------------------------------------|
D|----------------5--5-5-5--5--------------------------------|
A|-3--3-3-3--3----5--5-5-5--5----5--5-5-5--5----7--7-7-7--7--|
E|-3--3-3-3--3----3--3-3-3--3----5--5-5-5--5----7--7-7-7--7--|
B|-1--1-1-1--1-------------------3--3-3-3--3----5--5-5-5--5--|

e|---------------------------------------------------------|
B|---------------------------------------------------------|
G|-------------------------------------------------7-------|
D|-7-7-7-7-7-7---9-9----------------4/5-4------4-5---5-----|
A|-7-7-7-7-7-7---9-9---10-10-10-10--------5-------------3--|
E|-5-5-5-5-5-5---7-7---8--8--8--8-----------7-----------3--|
B|------------------------------------------------------1--|


[2ND CHORUS LEAD]

e|-----------------------------------------------------------------|
B|-----------------------------------------------------------------|
G|-9-9-9-9-9-9-9-9---11-11-11-11---12-12-12-12----7-7-7-7-7-7-7-7--|
D|-----------------------------------------------------------------|
A|-7-7-7-7-7-7-7-7---9--9--9--9----10-10-10-10----5-5-5-5-5-5-5-5--|
E|-----------------------------------------------------------------|
B|-----------------------------------------------------------------|

e|----------------------------|
B|----------------------------|
G|-14-14-14-14---12-12-12-12--|
D|----------------------------|
A|-12-12-12-12---10-10-10-10--|
E|----------------------------|
B|----------------------------|

e|---------------------------------------------|
B|---------------------------------------------|
G|-9-9-9-9-9-9-9-9---11-11-11-11---12-12-12-12-|
D|---------------------------------------------|
A|-7-7-7-7-7-7-7-7---9--9--9--9----10-10-10-10-|
E|---------------------------------------------|
B|---------------------------------------------|

e|------------------------------------------------|
B|------------------------------------------------|
G|-11-11-11-11-11-11-11-11---9-9-9-9--------------|
D|------------------------------------7/9-7-------|
A|-9--9--9--9--9--9--9--9----7-7-7-7--------9-10--|
E|------------------------------------------------|
B|------------------------------------------------|

e|---------------------------------------------------------------------|
B|-8-8-8-8-8-8-8-8---12-12-12-12-12-12-12-12---10-10-10-10-10-10-10-10-|
G|---------------------------------------------------------------------|
D|-5-5-5-5-5-5-5-5---9--9--9--9--9--9--9--9----7--7--7--7--7--7--7--7--|
A|---------------------------------------------------------------------|
E|---------------------------------------------------------------------|
B|---------------------------------------------------------------------|

e|------------------------------|
B|-15-15-15-15---13-13---12-12--|
G|------------------------------|
D|-12-12-12-12---10-10---9--9---|
A|------------------------------|
E|------------------------------|
B|------------------------------|

e|--------------------------------------------------------|
B|--------------------------------------------------------|
G|--5-5-5-5-5-5--7-7--9-9-9-9-------------------12--------|
D|------------------------------7/9-7------9-10----10-----|
A|--3-3-3-3-3-3--5-5--7-7-7-7---------9-10-------------3--|
E|-----------------------------------------------------3--|
B|-----------------------------------------------------1--|


[CLEAN]

e|----------5-----------------5----------|
B|------8-----8---8-------8-----8---8----|
G|----7---7-----7-------7---7-----7------|
D|--------------------5------------------|
A|---------------------------------------|
E|-8-------------------------------------|
B|---------------------------------------|

e|---------5----------------7------------|
B|-----8-----8---8------8-----8---7------|
G|---7---7-----7------7---8-----7--------|
D|---------------------------------------|
A|-5----------------7--------------------|
E|---------------------------------------|
B|---------------------------------------|

e|----------5-----------------5----------|
B|------8-----8---8-------8-----8---8----|
G|----7---7-----7-------7---7-----7------|
D|--------------------5------------------|
A|---------------------------------------|
E|-8-------------------------------------|
B|---------------------------------------|

e|---------5----------------7------------|
B|-----8-----8---8------8-----8---7------|
G|---7---7-----7------7---8-----7--------|
D|---------------------------------------|
A|-5----------------7--------------------|
E|---------------------------------------|
B|---------------------------------------|

e|------5----------5---------5--------7-------|
B|--------8----------8---------8--------8-----|
G|---7----------7-------------------7---------|
D|-----------5------------5-------------------|
A|----------------------5---------7-----------|
E|-8------------------------------------------|
B|--------------------------------------------|

e|------5----------5---------5--------7-------|
B|--------8----------8---------8--------8-----|
G|---7----------7-------------------7---------|
D|-----------5------------5-------------------|
A|----------------------5---------7-----------|
E|-8------------------------------------------|
B|--------------------------------------------|

e|------5----------5---------5--------7-------|
B|--------8----------8---------8--------8-----|
G|---7----------7-------------------7---------|
D|-----------5------------5-------------------|
A|----------------------5---------7-----------|
E|-8------------------------------------------|
B|--------------------------------------------|

e|------5----------5---------5--------|
B|--------8----------8---------8------|
G|---7----------7---------------------|
D|-----------5------------5-----------|
A|----------------------5-------------|
E|-8----------------------------------|
B|------------------------------------|


[3RD CHORUS]

e|-----------------------------------------------------------|
B|-----------------------------------------------------------|
G|-----------------------------------------------------------|
D|----------------5--5-5-5--5--------------------------------|
A|-3--3-3-3--3----5--5-5-5--5----5--5-5-5--5----7--7-7-7--7--|
E|-3--3-3-3--3----3--3-3-3--3----5--5-5-5--5----7--7-7-7--7--|
B|-1--1-1-1--1-------------------3--3-3-3--3----5--5-5-5--5--|

e|-------------------------------------------------------------|
B|-------------------------------------------------------------|
G|-------------------------------------------------------------|
D|----------------5--5-5-5--5------------------------4/5-4-----|
A|-3--3-3-3--3----5--5-5-5--5----5--5-5-5--5----7-7--------5-2-|
E|-3--3-3-3--3----3--3-3-3--3----5--5-5-5--5----7-7------------|
B|-1--1-1-1--1-------------------3--3-3-3--3----5-5------------|

e|-----------------------------------------------------------|
B|-----------------------------------------------------------|
G|-----------------------------------------------------------|
D|----------------5--5-5-5--5--------------------------------|
A|-3--3-3-3--3----5--5-5-5--5----5--5-5-5--5----7--7-7-7--7--|
E|-3--3-3-3--3----3--3-3-3--3----5--5-5-5--5----7--7-7-7--7--|
B|-1--1-1-1--1-------------------3--3-3-3--3----5--5-5-5--5--|

e|-------------------------------------------|
B|-------------------------------------------|
G|-------------------------------------------|
D|----------5-5-5-5----------------4/5-4-----|
A|-3-3-3-3--5-5-5-5--5-5-5-5--7-7--------5-2-|
E|-3-3-3-3--3-3-3-3--5-5-5-5--7-7------------|
B|-1-1-1-1-----------3-3-3-3--5-5------------|

e|----------------------------------------------------|
B|----------------------------------------------------|
G|----------------------------------------------------|
D|------------------5-5-5-5-5-5-5-5-------------------|
A|-3-3-3-3-3-3-3-3--5-5-5-5-5-5-5-5--5-5-5-5-5-5-5-5--|
E|-3-3-3-3-3-3-3-3--3-3-3-3-3-3-3-3--5-5-5-5-5-5-5-5--|
B|-1-1-1-1-1-1-1-1-------------------3-3-3-3-3-3-3-3--|

e|------------------|
B|------------------|
G|------------------|
D|------------------|
A|-7-7-7-7-7-7-7-7--|
E|-7-7-7-7-7-7-7-7--|
B|-5-5-5-5-5-5-5-5--|

e|----------------------------------------------------|
B|----------------------------------------------------|
G|----------------------------------------------------|
D|------------------5-5-5-5-5-5-5-5-------------------|
A|-3-3-3-3-3-3-3-3--5-5-5-5-5-5-5-5--5-5-5-5-5-5-5-5--|
E|-3-3-3-3-3-3-3-3--3-3-3-3-3-3-3-3--5-5-5-5-5-5-5-5--|
B|-1-1-1-1-1-1-1-1-------------------3-3-3-3-3-3-3-3--|

e|------------------------------|
B|------------------------------|
G|------------------------------|
D|------------------4/5-4-------|
A|-7-7-7-7-7-7-7-7--------5-2---|
E|-7-7-7-7-7-7-7-7--------------|
B|-5-5-5-5-5-5-5-5--------------|

e|----------------------------------------------------|
B|----------------------------------------------------|
G|----------------------------------------------------|
D|------------------5-5-5-5-5-5-5-5-------------------|
A|-3-3-3-3-3-3-3-3--5-5-5-5-5-5-5-5--5-5-5-5-5-5-5-5--|
E|-3-3-3-3-3-3-3-3--3-3-3-3-3-3-3-3--5-5-5-5-5-5-5-5--|
B|-1-1-1-1-1-1-1-1-------------------3-3-3-3-3-3-3-3--|

e|---------------------|
B|---------------------|
G|---------------------|
D|---------------------|
A|-7-7-7-7-7-7-7-7--3--|
E|-7-7-7-7-7-7-7-7--3--|
B|-5-5-5-5-5-5-5-5--1--|


[3RD CHORUS LEAD]

e|---------------------------------------------------------------|
B|---------------------------------------------------------------|
G|-9-9-9-9-9-9-9-9---11-11-11-11--12-12-12-12---7-7-7-7-7-7-7-7--|
D|---------------------------------------------------------------|
A|-7-7-7-7-7-7-7-7---9--9--9--9---10-10-10-10---5-5-5-5-5-5-5-5--|
E|---------------------------------------------------------------|
B|---------------------------------------------------------------|

e|----------------------------|
B|----------------------------|
G|-14-14-14-14---12-12-12-12--|
D|----------------------------|
A|-12-12-12-12---10-10-10-10--|
E|----------------------------|
B|----------------------------|

e|----------------------------------------------|
B|----------------------------------------------|
G|-9-9-9-9-9-9-9-9---11-11-11-11---12-12-12-12--|
D|----------------------------------------------|
A|-7-7-7-7-7-7-7-7---9--9--9--9----10-10-10-10--|
E|----------------------------------------------|
B|----------------------------------------------|

e|-------------------------------------------------|
B|-------------------------------------------------|
G|-11-11-11-11-11-11-11-11---9-9-9-9---------------|
D|-------------------------------------7/9-7-------|
A|-9--9--9--9--9--9--9--9----7-7-7-7---------9-10--|
E|-------------------------------------------------|
B|-------------------------------------------------|

e|----------------------------------------------------------------------|
B|-8-8-8-8-8-8-8-8---12-12-12-12-12-12-12-12---10-10-10-10-10-10-10-10--|
G|----------------------------------------------------------------------|
D|-5-5-5-5-5-5-5-5---9--9--9--9--9--9--9--9----7--7--7--7--7--7--7--7---|
A|----------------------------------------------------------------------|
E|----------------------------------------------------------------------|
B|----------------------------------------------------------------------|

e|------------------------------|
B|-15-15-15-15---13-13---12-12--|
G|------------------------------|
D|-12-12-12-12---10-10---9--9---|
A|------------------------------|
E|------------------------------|
B|------------------------------|

e|-----------------------------------------------------------|
B|-8-8-8-8---12-12-12-12---10-10-10-10---15-15---------------|
G|-----------------------------------------------------------|
D|-5-5-5-5---9--9--9--9----7--7--7--7----12-12---7/9-7-------|
A|-----------------------------------------------------9-10--|
E|-----------------------------------------------------------|
B|-----------------------------------------------------------|


[TREMOLO PICK]

e|---------------------------------------------------------------------|
B|-----------------------------------7-7-7-7-7-7-7-7--8-8-8-8-8-8-8-8--|
G|-9-9-9-9-9-9-9-9--7-7-7-7-7-7-7-7------------------------------------|
D|---------------------------------------------------------------------|
A|---------------------------------------------------------------------|
E|---------------------------------------------------------------------|
B|---------------------------------------------------------------------|

e|------------------------------------------------------------------------------------------------|
B|-12-12-12-12-12-12-12-12--10-10-10-10-10-10-10-10--8-8-8-8-8-8-8-8--7-7-7-7-7-7-7-7-------------|
G|------------------------------------------------------------------------------------------------|
D|-------------------------------------------------------------------------------------7/9-7------|
A|-------------------------------------------------------------------------------------------9-10-|
E|------------------------------------------------------------------------------------------------|
B|------------------------------------------------------------------------------------------------|

e|---------------------------------------------------------------------|
B|-----------------------------------7-7-7-7-7-7-7-7--8-8-8-8-8-8-8-8--|
G|-9-9-9-9-9-9-9-9--7-7-7-7-7-7-7-7------------------------------------|
D|---------------------------------------------------------------------|
A|---------------------------------------------------------------------|
E|---------------------------------------------------------------------|
B|---------------------------------------------------------------------|

e|----------------------------------------------------------------------------|
B|-12-12-12-12-12-12-12-12--13-13-13-13-13-13-13-13--15-15-15-15-15-15-15-15--|
G|----------------------------------------------------------------------------|
D|----------------------------------------------------------------------------|
A|----------------------------------------------------------------------------|
E|----------------------------------------------------------------------------|
B|----------------------------------------------------------------------------|

e|-15-15-15-15-15-15-15-15--14-14-14-14-14-14-14-14-----|
B|--------------------------------------------------15~-|
G|------------------------------------------------------|
D|------------------------------------------------------|
A|------------------------------------------------------|
E|------------------------------------------------------|
B|------------------------------------------------------|


***********************************
| /   Slide up
| \   Slide down
| h   Hummer-on
| p   Pull-off
| ~   Vibrato
| +   Harmonic
| x   Dead note
| b   Bend
| pb  Pre-bend
| br  Bend release
*********************************** 


 
 
Babymetal - Karate :: indexed at Ultimate Guitar.
Karate tabs @ 911Tabs
People who played Babymetal - Karate also played these songs by Babymetal:
Megitsune Tab, Akatsuki Tab, Ijime Dame Zettai Tab, Ijime Dame Zettai Tab, Road Of Resistance Tab, Karate Tab

Quick tip, so you can enjoy Karate even more:

Try out the AutoScroller option ... It scrolls the page for you, so you can totally focus on nailing that solo. You can choose among different speeds using your mouse or your keyboard (keys 0, 1, 2 and 3).

Show us your talent, perform Karate!

Here you can post a video or audio performance. Tell me more ...
Where can we find your performance? Tell me more ...
Your comment:
Please, log in to post your performance.