Artists by letter: A B C D E F G H I J K L M N O P Q R S T U V W X Y Z 0-9

 
Karate
[Intro]

  PM--------------------|
Db|---------------------------------------------------------------------------|
Ab|---------------------------------------------------------------------------|
E |-------------------------(Natural harmonics on the fifth fret)-------------|
B |---------------------------------------------------------------------------|
Gb|---------------------------------------------------------------------------|
B |--5-5-5-5-5-5-5-5-5-5------------------------------------------------------|


[Opening]
                                        PM------------------------|
Db|---------------------------------------------------------------------------|
Ab|---------------------------------------------------------------------------|
E |---------------------------------------------------------------------------|
B |---------------------------------------------------------------------------|
Gb|------5---------/5------------3-------0-0-0--0--0-0-0--0--0-0-0------------|
B |--3~------1-3-0------3~--2b3-----3~---0-0-0--0--0-0-0--0--0-0-0------------|
                
                                                         P.H.
Db|---------------------------------------------------------------------------|
AG|---------------------------------------------------------------------------|
E |---------------------------------------------------------------------------|
B |---------------------------------------------------------------------------|
Gb|------5---------/5-----------5-------------------------5-------------------|
B |--3~------1-3-0------3~--2b3-----3~---0-0-0-0-0--3-1-0---------------------|

                                        PM------------------------|
Db|---------------------------------------------------------------------------|
Ab|---------------------------------------------------------------------------|
E |---------------------------------------------------------------------------|
B |---------------------------------------------------------------------------|
Gb|------5---------/5------------3-------0-0-0--0--0-0-0--0--0-0-0------------|
B |--3~------1-3-0------3~--2b3-----3~---0-0-0--0--0-0-0--0--0-0-0------------|

Db|---------------------------------------------------------------------------|
Ab|---------------------------------------------------------------------------|
E |---------------------------------------------------------------------------|
B |---------------------------------------------------------------------------|
Gb|------5---------5-------------5------------0-1-0---------------------------|
B |--3~------1-3-0------3~--2b3-----3~--0-1-4-------4-1-0---------------------|

Db|---------------------------------------------------------------------------|
Ab|---------------------------------------------------------------------------|
E |---------------------------------------------------------------------------|
B |-------------------------------------------4-------------------------------|
Gb|-(Left Guitar)----(Right Guitar)--------5-6--------------------------------|
B |-0-0---0-0-----------0-0---0-0---------------------------------------------|


[Verse]

Db|-------------------------------------------------------------------------------------|
Ab|-------------------------------------------------------------------------------------|
E |----------------------------------------------------------------------------------x2-|
B |------4----4-----------5-------4---4-------------------------------------------------|
Gb|----5----5----5-6-3-5----5---5----5----5-6--3-5--1-0---------------------------------|
B |-0-----0-----0---0----0----0-----0----0----0---0-------------------------------------|


[Pre-chorus]

  PM------------------------------------------------------------------------------|
Db|---------------------------------------------------------------------------------------------|
Ab|---------------------------------------------------------------------------------------------|
E |-----------------------------------------x3--------------------------------------------------|
B |--0-0-0--0-0-0--0---0-0-0---0-0-0--0--0-----0-0-0--0-0-0--0---0-0-0--0-0-0-0-0---1---3-------|
Gb|--0-0-0--0-0-0--0---0-0-0---0-0-0--0--0-----0-0-0--0-0-0--0---0-0-0--0-0-0-0-0---1---3-------|
B |--0-0-0--0-0-0--0---0-0-0---0-0-0--0--0-----0-0-0--0-0-0--0---0-0-0--0-0-0-0-0---1---3-------|


[Chorus]

Db|---------------------------------------------------------------------------|
Ab|---------------------------3-2---------------------------------------------|
E |-----5------------5------------3-0------5---------7--9-10------------------|
B |--1--5--3--5---1--5--3--5------------1--5--3--5---7--9-10------------------|
Gb|--1--3--3--5---1--3--3--5------------1--3--3--5---5--7-8-------------------|
B |--1-----3--5---1-----3--5------------1-----3--5------------3~--1~-X-X-X----|

                                        PM------------------------|
Db|---------------------------------------------------------------------------|
Ab|---------------------------------------------------------------------------|
E |---------------------------------------------------------------------------|
B |---------------------------------------------------------------------------|
Gb|------5---------/5------------3-------0-0-0--0--0-0-0--0--0-0-0------------|
B |--3~------1-3-0------3~--2b3-----3~---0-0-0--0--0-0-0--0--0-0-0------------|
                
                                                         P.H.
Db|---------------------------------------------------------------------------|
AG|---------------------------------------------------------------------------|
E |---------------------------------------------------------------------------|
B |---------------------------------------------------------------------------|
Gb|------5---------/5-----------5-------------------------5-------------------|
B |--3~------1-3-0------3~--2b3-----3~---0-0-0-0-0--3-1-0---------------------|

                                        PM------------------------|
Db|---------------------------------------------------------------------------|
Ab|---------------------------------------------------------------------------|
E |---------------------------------------------------------------------------|
B |---------------------------------------------------------------------------|
Gb|------5---------/5------------3-------0-0-0--0--0-0-0--0--0-0-0------------|
B |--3~------1-3-0------3~--2b3-----3~---0-0-0--0--0-0-0--0--0-0-0------------|
                                        
                                                 H H H H
Db|---------------------------------------------------------------------------| It seems like a natural
Ab|---------------------------------------------------------------------------| harmonic was pitch shifted in
E |---------------------------------------------------------------------------| post but in my cover i just 
B |---------------------------------------------------------------------------| bend the 18th fret on the Db
Gb|------5---------/5--------------3------------0-5-5-5-6---------------------| string ( High e )
B |--3~------1--3-0------3~--2b3-----3~--0-1-4--------------------------------|


[Verse 2]

   PM-----------------------------------------------------------------------------|
Db|--------------------------------------------------------------------------------------|
Ab|--------------------------------------------------------------------------------------|
E |--------------------------------------------------------------------------------------|
B |--------------------------------------------------------------------------------3--1--|
Gb|----------------------------------------------------------------5---------------3--1--|
B |-0-0-0-0---0-0---0-0---0-0---0--0--3b5r3---0-0---0-0---0-0-0-0----5b6--0-0--0-0-3--1--|

   PM------------------------------------------------------------|
Db|----------------------------------------------------------------------------------------------|
Ab|----------------------------------------------------------------------------------------------|
E |----------------------------------------------------------------------------------------------|
B |----------------------------------------------------------------------------------------------|
Gb|----------------------------------------------------------------5-----------------------------|
B |-0-0-0-0---0-0---0-0---0-0---0--0--3b5r3---0-0---0-0---0-0-0-0----5b6--0-12-13-10-12-8-10-7-8-|


[Pre Chorus 2]

Db|[---------------------------------------]------------------------------------|
Ab|[---------------------------------------]------------------------------------|
E |[---------------------------------------]-x4---------------------------------|
B |[-----------------------10--------------]-------1---3------------------------|
Gb|[---------5-----9--------------------9--]-------1---3------------------------|
B |[-0---0-----7-0----12-0----13-0-0-12----]-------1---3------------------------|


[Chorus]

Db|------------------------------------------------------------------------------|
Ab|------------------------------------------------------------------7----3-6-3--|
E |-----5------------7--------3-2----------5---------7--9-10----3-2-----3--------|
B |--1--5--3--5---1--7--3--5------3-0---1--5--3--5---7--9-10--------3-0----------|
Gb|--1--3--3--5---1--5--3--5------------1--3--3--5---5--7-8----------------------|
B |--1-----3--5---1-----3--5------------1-----3--5-------------------------------|


[Pre chorus]

Db|----------------5--6----6---------------5-6----6---------------| 
Ab|-----3--4-----5-------5-------6--6-----------------------------|
E |---3------------------------5---------7------7-----------------|x4
B |-1----1----7-----7---7----3----3----5----5--5------------------|
Gb|---------------------------------------------------------------|
B |---------------------------------------------------------------|


[Chorus]

Db|-[----------------------------------]----------------------------------------|
Ab|-[--------------------------3-2-----]----------------------------------------|
E |-[----5------------5------------3-0-]-x3--------5------------5---------------|
B |-[-1--5--3--5---1--5--3--5----------]--------3--5--5--7---3--5--5--7--3~-----|
Gb|-[-1--3--3--5---1--3--3--5----------]--------3--3--5--7---3--3--5--7--3~-----|
B |-[-1-----3--5---1-----3--5----------]--------1-----3--5---1-----3--5--1~-----|



********************************

PM   palm mute
/    slide up
\    slide down
h    hammer-on
p    pull-off
~    vibrato
H    harmonic
b    Bend
pb   Pre-bend
br   Bend release
pbr  Pre-bend release
brb  Bend release bend
PH   Pinch harmonic

********************************

 
 
Babymetal - Karate :: indexed at Ultimate Guitar.
Karate tabs @ 911Tabs
People who played Babymetal - Karate also played these songs by Babymetal:
Megitsune Tab, Akatsuki Tab, Ijime Dame Zettai Tab, Ijime Dame Zettai Tab, Road Of Resistance Tab, Karate Tab

Quick tip, so you can enjoy Karate even more:

Try out the AutoScroller option ... It scrolls the page for you, so you can totally focus on nailing that solo. You can choose among different speeds using your mouse or your keyboard (keys 0, 1, 2 and 3).

Show us your talent, perform Karate!

Here you can post a video or audio performance. Tell me more ...
Where can we find your performance? Tell me more ...
Your comment:
Please, log in to post your performance.