Artists by letter: A B C D E F G H I J K L M N O P Q R S T U V W X Y Z 0-9

 
Ijime Dame Zettai
-------------------------------------------------------------------------------
                             Babymetal - Ijime, Dame, Zettai
-------------------------------------------------------------------------------
Tabbed by: Andre Oksnes
Tuning: Drop-C# (C#, G#, C#, F#, A#, D#)
Video of me playing it: https://www.youtube.com/watch?v=DEpe39cMInQ


[Intro]

D#|----------------------------------|
A#|----------------------------------|
F#|----------------------------------|
C#|----------------------------------|  x3
G#|----------------------------------|
C#|-7-0-0-6-0-0-5-0-0-3-0-0-2-0-1-0--|
    x x x x x x x x x x x x x x x x 

D#|-------------------|
A#|-------------------|
F#|-------------------|
C#|-----3---3--2-3-2--|
G#|-----1-3-1---------|
C#|-------3-----------|

D#|----------------------------------|
A#|----------------------------------|
F#|----------------------------------|
C#|----------------------------------|  x3
G#|----------------------------------|
C#|-7-0-0-6-0-0-5-0-0-3-0-0-2-0-1-0--|
    x x x x x x x x x x x x x x x x 

D#|--------------------|
A#|--------------------|
F#|--------------------|
C#|-----3---3--2-3-5-2-|
G#|-----1-3-1----------|
C#|-------3------------|

D#|----------------------------------|
A#|----------------------------------|
F#|----------------------------------|
C#|----------------------------------|  x3
G#|----------------------------------|
C#|-7-0-0-6-0-0-5-0-0-3-0-0-2-0-1-0--|
    x x x x x x x x x x x x x x x x 

D#|--------------------|
A#|--------------------|
F#|--------------------|
C#|-----3---3--3/5-3-2-|
G#|-----1-3-1----------|
C#|-------3------------|


D#|----------------------------------|
A#|----------------------------------|
F#|----------------------------------|
C#|----------------------------------|  x3
G#|----------------------------------|
C#|-7-0-0-6-0-0-5-0-0-3-0-0-2-0-1-0--|
 x x x x x x x x x x x x x x x x 

D#|--------|
A#|--------|
F#|--------|
C#|--------|
G#|--5-7-8-|
C#|--------|


[Intro Solo]

D#|----------15---15-17-18-20-----------20~---------------17-17--17b-17~--15------|
A#|-15-17-18---18-------------18~-17h18----18-17h18-------------------------18-17~|
F#|--------------------------------------------------17~--------------------------|
C#|-------------------------------------------------------------------------------|
G#|-------------------------------------------------------------------------------|
C#|-------------------------------------------------------------------------------|

D#|-------20~----------20-20b--18-17----17-17-17b-15---15-------15-17----15-17-18--15-17-18-20-|
A#|-17h18----18--17h18------------------------------------17-18-------18-----------------------|
F#|----------------------------------17--------------------------------------------------------|
C#|--------------------------------------------------------------------------------------------|
G#|--------------------------------------------------------------------------------------------|
C#|--------------------------------------------------------------------------------------------|


[Verse]

D#|----------------|
A#|----------------|
F#|----------------|
C#|-2-3-5--3-2-----|
G#|-0-1-3------5-3-|
C#|----------------|

D#|------------------------------------------------------------------------------------------|
A#|------------------------------------------------------------------------------------------|
F#|------------------------------------------------------------------------------------------|
C#|7---------7---------7-----5---------5---------5-----3---------3---------3-----2-----------|
G#|5-5-5-5-5-5-5-5-5-5-5-5-5-3-3-3-3-3-3-3-3-3-3-3-3-3-1-1-1-1-1-1-1-1-1-1-1-1-1-0-0-0-0-0---|
C#|------------------------------------------------------------------------------------------|
   xxxx   xxxx   xx   xxxx   xxxx   xx   xxxx   xxxx   xx   xxxx

D#|----------------------------------------------------|
A#|----------------------------------------------------|
F#|----------------------------------------------------|
C#|----------------------------------------------------|
G#|-3-1-0-3--5--3--5---3-3-3-3-5-5-5-5-7-7-7-7-3-3-3-3-|
C#|----------5--3--5-----------------------------------|
                      xxxx xxxx xxxx xxxx

D#|------------------------------------------------------------------------------------------|
A#|------------------------------------------------------------------------------------------|
F#|------------------------------------------------------------------------------------------|
C#|7---------7---------7-----5---------5---------5-----3---------3---------3-----2-----------|
G#|5-5-5-5-5-5-5-5-5-5-5-5-5-3-3-3-3-3-3-3-3-3-3-3-3-3-1-1-1-1-1-1-1-1-1-1-1-1-1-0-0-0-0-0---|
C#|------------------------------------------------------------------------------------------|
     x x x x   x x x x   x x   x x x x   x x x x   x x   x x x x   x x x x   x x   x x x x

D#|------------------------------------------------------|
A#|----------------------------------------6---8---------|
F#|----------------------5-3-2---------------------5*----|
C#|-3-2-0--------------3-------5-3----5----3---5---------|
G#|-------3--5-------3-----------------------------------|
C#|----------5-----3------------------5------------------|
                  x x x


[Pre-Chorus]

D#|---------------------------------------------------------------------------------------------|
A#|---------------------------------------------------------------------------------------------|
F#|---------------------------------------------------------------------------------------------|
C#|-3-----------------------------5-------------------------------------------------------------|
G#|-1-1-1-1-1-1-1-1-1-1-1-1-1-1-1-3-3-3-3-3-3-3-3-3-3-3-3-3-3-3--3-3-5-5-7-7-3-3-0-0-0-0-0-0-0-0|
C#|---------------------------------------------------------------------------------------------|
   x x x x x x x x x x x x x x   x x x x x x x x x x x x x x x x x x x x x x x x x x x x  x x 

D#|-----------------------------------------------------|
A#|-----------------------------------------------------|
F#|-----------------------------------------------------|
C#|-3---------------------------------------------------|
G#|-4-4-4-4-4-4-4-4--5-5-5-5-5-5-5-5-5-5-3-3-1-1-0-0----|
C#|-----------------------------------------------------|
      x x x x x x x  x x x x x x x x x x x x x x x x

D#|------------------------|
A#|------------------------|
F#|------------------------|
C#|------------------------|
G#|-5--7--8---7-7-5-7-8-7--|
C#|-5--7--8---7-7-5-7-8-7--|
             x x x x x 


[Chorus]

D#|---------------------------------------------------------------|
A#|---------------------------------------------------------------|
F#|---------------------------------------------------------------|
C#|-----------5---------3-----2----------------2-2----------------|
G#|-0----5----3----3----1-----0--5----3-2---2--0-0--0-0-4-0-2-4---|
C#|-0----5---------3-------------5----3-2---2---------------------|
                                                   x x x x x x

D#|------------------------------------------------------------------------|
A#|------------------------------------------------------------------------|
F#|------------------------------------------------------------------------|
C#|-----------5---------3------2------------7--7-7-7-7-7--7-5-3-2---3--5---|
G#|-0----5----3----3----1------0--5---5-7---4--5-5-5-5-5--5-3-1-0---1--3---|
C#|-0----5---------3--------------5---5-7----------------------------------|
                                              x x x x x

D#|----------------------------------------------------------------------------------------------------|
A#|----------------------------------------------------------------------------------------------------|
F#|----------------------------------------------------------------------------------------------------|
C#|12\--------------------------------------------------------------------------------3---3--2h3-2-----|
G#|12\-------------------------1------------------5-4-1---------------------------1---1-3-1--------5-3-|
C#|12\-0-0-0-0-0-0-0-0-0-0-0-0-1-0-0-0-0-0-0-0-0--5-4-1---0-0-0-0-0-0-0-0-0-0-0-0-1-----3--------------|
      x x x x x x x x x x x x   x x x x x x x x          x x x x x x x x x x x x

D#|--------------------------------------------------------------------|
A#|--------------------------------------------------------------------|
F#|--------------------------------------------------------------------|
C#|-----------------3-3-3-3----------------------------3-3-3-3-2-2-2-2-|
G#|-5-5-5-5-1-1-1-1---------3-3-3-3----5-5-5-5-1-1-1-1-----------------|
C#|--------------------------------------------------------------------|
   x x x x x x x x x x x x x x x x    x x x x x x x x x x x x x x x x

D#|--------------------------------------------------------------------|
A#|--------------------------------------------------------------------|
F#|--------------------------------------------------------------------|
C#|-----------------3-3-3-3----------------------------3-3-3-3-2-2-2-2-|
G#|-5-5-5-5-1-1-1-1---------3-3-3-3----5-5-5-5-1-1-1-1-----------------|
C#|--------------------------------------------------------------------|
   x x x x x x x x x x x x x x x x    x x x x x x x x x x x x x x x x


[2nd solo]

D#|-17p13----13--18p13----13--17p13----13--15p12----12--|
A#|-------15-----------15-----------15-----------13-----|
F#|-----------------------------------------------------|
C#|-----------------------------------------------------|
G#|-----------------------------------------------------|
C#|-----------------------------------------------------|

D#|-17p13----13--18p13----13--20p15----15--15\12----12--|
A#|-------15-----------15-----------17-----------13-----|
F#|-----------------------------------------------------|
C#|-----------------------------------------------------|
G#|-----------------------------------------------------|
C#|-----------------------------------------------------|

D#|-17p13----13--18p13----13--17p13----13--15p12----12--|
A#|-------15-----------15-----------15-----------13-----|
F#|-----------------------------------------------------|
C#|-----------------------------------------------------|
G#|-----------------------------------------------------|
C#|-----------------------------------------------------|

D#|-17p13----13--18p13----13-|
A#|-------15-----------15----|
F#|--------------------------|
C#|--------------------------|
G#|--------------------------|
C#|--------------------------|

D#|-17-15-13-------------------17-15-13---17~-16~-15~--13-12-------------13--12--------|
A#|----------17-15-13-17-15-13-------------------------------13--10--11--16b-15b-------|
F#|--------------------------------------------------------------12b-13b---------------|
C#|------------------------------------------------------------------------------------|
G#|--------------------------------------------------------------------------------0---|
C#|--------------------------------------------------------------------------------0---|

D#|--------------------------------------------------------------------------------|
A#|--------------------------------------------------------------------------------|
F#|------------------------5-3-2------------------------------------------0-2-3-5--|
C#|----------------------3-------5-3--------------------0-2-3--0-2-3-5--3----------|
G#|--5-5-5-5-5-5-----3---------------5-5-5-5-5-5-5----3----------------------------|
C#|--5-5-5-5-5-5-----3---------------5-5-5-5-5-5-5---------------------------------|
    x x x x x x                       x x x x x x


[2nd verse]

D#|-----------------------------------------------------------------------------|
A#|-----------------------------------------------------------------------------|
F#|-----------------------------------------3-----------------------------------|
C#|------5----3----2------------------------------------------------------------|
G#|-0----3----1----0---3-1-0-3---5---3---5--1---3-3-3-3-5-5-5-5-7-7-7-7-3-3-3-3-|
C#|-0----------------------------5---3---5--------------------------------------|
                                               x x x x x x x x x x x x x x x x

D#|------------------------------------------------------------------------|
A#|------------------------------------------------------------------------|
F#|------------------------------------------------------------------------|
C#|----3----------------2----------------2--------2------7-7-7-7--5-3-1-2--|
G#|-1-1--1---1-1-1-1-3-3--3---3-3-3-3-4-4--4---4-4--4----5-5-5-5--7-5-3-0--|
C#|------------------------------------------------------------------------|
   x x      x x x x x x      x x x x x x      x x         x x x 

D#|----------------------------------------------------------------------------------|
A#|----------------------------------------------------------------------------------|
F#|----------------------------------------------6-6-6-6-7-7-7-7-9-9-9-9-10-10-10-10-|
C#|---8-----1-0-----1-2--------------------------------------------------------------|
G#|-5-5---7-7-----8-8------7-7-7-5-7-8--7-5-3-2--------------------------------------|
C#|-5-5---7-7-----8-8------7-7-7-5-7-8--7-5-3-2--------------------------------------|
                          x x x x x x


[Chorus]

D#|---------------------------------------------------------------|
A#|---------------------------------------------------------------|
F#|---------------------------------------------------------------|
C#|-----------5---------3-----2----------------2-2----------------|
G#|-0----5----3----3----1-----0--5----3-2---2--0-0--0-0-4-0-2-4---|
C#|-0----5---------3-------------5----3-2---2---------------------|
                                                   x x x x x x

D#|-------------------------------------------------------------|
A#|-------------------------------------------------------------|
F#|-------------------------------------------------------------|
C#|-------------------------------------------------------------|
G#|-------------------------------------------------------------|
C#|-0-0-0-0-0-0-0-0-0-0-0-2-2-3-3-5-5-5-5-5-5-5-5-5-5-5-7-7-8-8-|
    x x x x x x x x x x x x x x   x x x x x x x x x x x x x x 

D#|----------------------------------------------------|
A#|----------------------------------------------------|
F#|--------------------------------5-5-3-3-2-2---------|
C#|5----------------2-2----3-3-3-3-------------5-5-3-3-|
G#|3-3-3-3-3-3-3-5-5---3-3-----------------------------|
C#|----------------------------------------------------|
   x x x x x x x x x x x x x x x x x x x x x x x x x x

D#|-------------------------------------------------|
A#|-------------------------------------------------|
F#|-------------------------------------------------|
C#|-3----2-----------7--7-7-7-7-7--7-5-3-2----------|
G#|-1----0--5--5-7---4--5-5-5-5-5--5-3-1-0---5--7---|
C#|---------5--5-7---------------------------5--7---|
                        x x x x x

D#|-----------------------------------------------------|
A#|-----------------------------------------------------|
F#|-----------------------2-----------------------------|
C#|-1-2\---3----5---------2----3--2---------------------|
G#|-1-2\---1----3----0----0----1--0--5--2-3--7-7-7-8-7--|
C#|-1-2\-------------0---------------5--2-3--7-7-7-8-7--|
                                             x x x x 


[Solo]

D#|---------------------------------------------------------------|
A#|------------8-10*---8h9h10-8----10-----------------------8-10--|
F#|-----7-9-10------------------10----------7--7/10-10-9-10-------|
C#|-7-8-------------------------------12\8------------------------|
G#|---------------------------------------------------------------|
C#|---------------------------------------------------------------|
    x x x x x x x

D#|-----------------------------------------------------------------------------|
A#|-----------------------------------------------------------------------------|
F#|--14-14-14-------14--17-15-14-12--15-14-12----14p12-----------------12-14----|
C#|-----------15-17---------------------------15-------15-14--12-14-15----------|
G#|-----------------------------------------------------------------------------|
C#|-----------------------------------------------------------------------------|

D#|-----------------------------------------------------------------------------|
A#|-----------------------------------------------------------------------------|
F#|--14-14-14----14-16--18-16-14-13--16-14-13----14p13----------13-14-16-18-----|
C#|-----------16------------------------------16-------16-14-16-----------------|
G#|-----------------------------------------------------------------------------|
C#|-----------------------------------------------------------------------------|

D#|-----------17-19--21-19-17-----------------------------------------17-19-17-|
A#|--17-17-17-----------------21-19-17-----------------------17-19-21----------|
F#|------------------------------------19-18-16----16-18-19--------------------|
C#|---------------------------------------------19-----------------------------|
G#|----------------------------------------------------------------------------|
C#|----------------------------------------------------------------------------|

D#|--17-17-17-17-19-19b-19---17\16-16-----------16-17-19-21-21b-21~--17-----19b-19--17-19--|
A#|------------------------------------17--17-19------------------------17-----------------|
F#|----------------------------------------------------------------------------------------|
C#|----------------------------------------------------------------------------------------|
G#|----------------------------------------------------------------------------------------|
C#|----------------------------------------------------------------------------------------|

D#|--17h19-17-19--17h19-19--21-21b-21-|
A#|-----------------------------------|
F#|-----------------------------------|
C#|-----------------------------------|
G#|-----------------------------------|
C#|-----------------------------------|

D#|--8p5-------5--13p8---------8-8-8-8-10-10-10-12-12-12-13-13-13---|
A#|------6---6---------10---10--------------------------------------|
F#|--------5--------------10----------------------------------------|
C#|-----------------------------------------------------------------|
G#|-----------------------------------------------------------------|
C#|-----------------------------------------------------------------|

D#|--10p7--------7--16p12-17p12----------12-16p12-----------------------------------------|
A#|-------9----9----------------12----12-----------17-15-13-13p12----------------12-13-15-|
F#|---------10---------------------13-----------------------------14-12----12-14----------|
C#|---------------------------------------------------------------------15----------------|
G#|---------------------------------------------------------------------------------------|
C#|---------------------------------------------------------------------------------------|

D#|-----------------10-12-12b-12--10--|
A#|-13b-13--11--13--------------------|
F#|-----------------------------------|
C#|-----------------------------------|
G#|-----------------------------------|
C#|-----------------------------------|

D#|-17p12----------12--17p12----------12--17p12---------12--17p12-----------|
A#|-------15----15-----------15----15-----------15----15----------15----15--|
F#|----------14-----------------14-----------------14----------------14-----|
C#|-------------------------------------------------------------------------|
G#|-------------------------------------------------------------------------|
C#|-------------------------------------------------------------------------|

D#|-17p12-----17p12-----|
A#|------15--------15---|
F#|--------14--------14-|
C#|---------------------|
G#|---------------------|
C#|---------------------|

D#|--17-15-13----15p13-------13-------------------------------------13-15-17--|
A#|-----------17-------17-15----17-15-14--17-15-14----------14-15-17----------|
F#|------------------------------------------------15-14-15-------------------|
C#|---------------------------------------------------------------------------|
G#|---------------------------------------------------------------------------|
C#|---------------------------------------------------------------------------|

D#|---------------------19-21-22-|
A#|--14-15-17--18-20-22----------|
F#|------------------------------|
C#|------------------------------|
G#|------------------------------|
C#|------------------------------|

D#|----------------------------------------------------------------------------|
A#|----------------------------------------------------------------------------|
F#|------------------------------------------------------------------7*--------|
C#|---------5----9----7---8---3---2----3-----3-----2---------------------------|
G#|--5-5----3----7--8---7---5---3--------1-1---1-1---1---5-----5---------------|
C#|--5-5---------------------------------------------------5-5---5-5-----------|
    x x            x   x   x   x        x x   x x   x     x x   x x

D#|---------------------------------------------------------------|
A#|---------------------------------------------------------------|
F#|---------------------------------------------------------------|
C#|-------------------------------5-7-8-7-5--------------9-7-7----|
G#|--2-2-2-2-2-2-2----------5-7-8-----------8-7-5-4------7-5-4----|
C#|--2-2-2-2-2-2-2----5-7-8-------------------------8-7-----------|
       x x x x x x    x x x x x x x x x x x x x x x x x


[Chorus]

D#|---------------------------------------------------------------------------|
A#|---------------------------------------------------------------------------|
F#|---------------------------------------------------------------------------|
C#|-----------5---------3-----2------------------------5-5-7-7-5-5------------|
G#|-0----5----3----3----1-----0--5----3-2--5-5-7-7-8-8-------------8-8-7-7----|
C#|-0----5---------3-------------5----3-2-------------------------------------|
                                                   xx x x x x

D#|-------------------------------10-12-12-12-12-13-15-17---|
A#|-------------10-13-11-10-11-13---------------------------|
F#|--8/10-10-12---------------------------------------------|
C#|---------------------------------------------------------|
G#|---------------------------------------------------------|
C#|---------------------------------------------------------|

D#|-----------------------------------------------------|
A#|-----------------------------------------------------|
F#|-----------------------------------------------------|
C#|-3----------------------2----------------------------|
G#|-1-1-1-1-1-1-1-1-1-1-1--0-0-0--5---------------------|
C#|-------------------------------5-5-5-5-5-5-5-5-5-5-5-|
    x x x x x x x x x x    x x    x x x x x x x x x x |

D#|---------------------------------------------------------|
A#|---------------------------------------------------------|
F#|---------------------------------------------------------|
C#|----------------7-7-7-7-7-7-7--7-7-7-7-7--7-5-3-2---3--5-|
G#|-7-7-7-7-7-7-7--4-4-4-4-4-4-4--5-5-5-5-5--5-3-1-0---1--3-|
C#|-7-7-7-7-7-7-7-------------------------------------------|
    x x x x x x     x x x x x x    x x x x


D#|-----------------------|
A#|-----------------------|
F#|-----------------------|
C#|-----------------------|
G#|--Pick-scrape-----0----|
C#|--Pick-scrape-----0----|


Modulation chorus

D#|---------------------------------------------------------------|
A#|---------------------------------------------------------------|
F#|---------------------------------------------------------------|
C#|--6------------------------------8-----------------------------|
G#|--4-4-4-4-4-4-4-4-4-4-4-4-4-4-4--6-6-6-6-6-6-6-6-6-6-6-6-6-6-6-|
C#|---------------------------------------------------------------|
       x x x x x x x x x x x x x x    x x x x x x x x x x x x x x |

D#|---------------------------------------------------------------|
A#|---------------------------------------------------------------|
F#|---------------------------------------------------------------|
C#|-1-0-----------------------------5--------------8--------------|
G#|-8--8-8-8-8-8-8-8-8-8-8-8-8-8-8--3-3-3-3-3-3-3--6-6-6-6-6-6-6--|
C#|---------------------------------------------------------------|
       x x x x x x x x x x x x x x    x x x x x x    x x x x x x  


D#|-----------------------------------------------------------------|
A#|-----------------------------------------------------------------|
F#|-----------------------------------------------------------------|
C#|--6------------------------------8-------------------------------|
G#|--4-4-4-4-4-4-4-4-4-4-4-4-4-4-4--6-6-6-6-6-6-6-6-6-6-6-6-6-6-6---|
C#|-----------------------------------------------------------------|
       x x x x x x x x x x x x x x    x x x x x x x x x x x x x x                              

D#|-------------------------------------------------------------------------------|
A#|-------------------------------------------------------------------------------|
F#|-------------------------------------------------------------------------------|
C#|--6-6-6-6---------6-6-6-6-8-8-8-8-10-10-10-10-11-11-11-11-10-10-10-10-8-8-8-8--|
G#|----------6-6-6-6--------------------------------------------------------------|
C#|-------------------------------------------------------------------------------|
     x x x x x x x x x x x x x x x x x x x x x x x x x x x x x x x x x x x x x x

D#|-------------------------------------------------------------------|
A#|-------------------------------------------------------------------|
F#|---------------------------------------6---------6~---8---------8~-|
C#|-6------8------1-0-------5------8------6---------6~---8---------8~-|
G#|-4------6------8---------3------6------4-4-4-4-4-4----6-6-6-6-6-6--|
C#|-------------------------------------------------------------------|
                                           x x x x        x x x x

D#|-13p18----------8--|
A#|-------10----10----|
F#|----------10-------|
C#|-------------------| x4
G#|-------------------|
C#|-------------------|

D#|-13p8--------13p8------|
A#|-----10----------10----|
F#|--------10----------10-|
C#|-----------------------|
G#|-----------------------|
C#|-----------------------|

D#|-13p18----------8--|
A#|-------10----10----|
F#|----------10-------|
C#|-------------------| x4
G#|-------------------|
C#|-------------------|

D#|-13p8--------13p8---------17--17-----|
A#|-----10----------10-------20b-20b----|
F#|--------10----------10---------------|
C#|-------------------------------------|
G#|-------------------------------------|
C#|-------------------------------------|



************************************

| *   Pinch Harmonic
| /   slide up
| \   slide down
| h   hammer-on
| p   pull-off
| ~   vibrato
| +   harmonic
| x   Mute note
| b   Bend
| pb  Pre-bend
| br  Bend release
| pbr Pre-bend release
| brb Bend release bend

************************************
 
 
Babymetal - Ijime Dame Zettai :: indexed at Ultimate Guitar.
Ijime Dame Zettai tabs @ 911Tabs
People who played Babymetal - Ijime Dame Zettai also played these songs by Babymetal:
Megitsune Tab, Akatsuki Tab, Ijime Dame Zettai Tab, Ijime Dame Zettai Tab, Road Of Resistance Tab, Karate Tab

Quick tip, so you can enjoy Ijime Dame Zettai even more:

After the registration (which takes just 10 seconds, remember?) you will be able to use your profile - your very own piece of YourChords.com.

Show us your talent, perform Ijime Dame Zettai!

Here you can post a video or audio performance. Tell me more ...
Where can we find your performance? Tell me more ...
Your comment:
Please, log in to post your performance.