Artists by letter: A B C D E F G H I J K L M N O P Q R S T U V W X Y Z 0-9

 
Bye Bye Love
-------------------------------------------------------------------------------
                       BYE BYE LOVE - Baby Universal
-------------------------------------------------------------------------------
4/4   around 204 bpm

Capo II

Intro
 A
|---------------|----------------|---------------|----------------|
|---------------|----------------|---------------|----------------|
|---------------|----------------|---------------|----------------| x2
|---------------|----------------|---------------|----------------|
|---------------|----------------|---------------|----------------|
|-5--5--5-0-3-5-|---5--5-5-0-3-0-|-5--5--5-0-3-5-|---5--5-5-0-3-0-|



Vers
 A5
|---------------|----------------|---------------|----------------|
|---------------|----------------|---------------|----------------|
|---------------|----------------|---------------|----------------|
|---------------|----------------|---------------|----------------|
|---------------|----------------|---------------|----------------|
|-5--5--5-0-3-5-|---5--5-5-0-3-0-|-5--5--5-0-3-5-|---5--5-5-0-3-0-|

E5                             F5            E5
|-------------|----------------|-------------|----------------|
|-------------|----------------|-------------|----------------|
|-------------|----------------|-------------|----------------| x2
|-------------|----------------|-------------|----------------|
|-------------|----------------|-------------|----------------|
|-0--0--0---0-|---0--0-0-0-0-0-|-1--1--1---0-|---0--0-0-0-0-0-|



Bridge
 D5                        Am                         
|-----------|-------------|-------------|----------------|
|-----------|-------------|-------------|----------------|
|-----------|-------------|-------------|----------------|
|-0---------|-------------|-------------|----------------|
|-----------|-0-----2-----|-3-----2--0--|--------0-------|
|-----------|-------------|-------------|-0--------------|

Bb            E               Am
|-------------|---------------|-------------|---------------|
|-------------|---------------|-------------|---------------|
|-------------|---------------|---------5-4-|-2-------------|
|-------------|---------------|-------------|---------------|
|-1-----------|-2-------------|-0-----------|---------------|
|-------------|---------------|-------------|---------------|

D5                        Am    
|-----------|-------------|-------------|----------------|
|-----------|-------------|-------------|----------------|
|-----------|-------------|-------------|----------------|
|-0---------|-------------|-------------|----------------|
|-----------|-0-----2-----|-3-----2--0--|--------0-------|
|-----------|-------------|-------------|-0--------------|

Bb            E               Am
|--------------|---------------|-------------|---------------|
|--------------|---------------|-------------|---------------|
|--------------|---------------|-------------|-2-------------|
|--------------|---------------|-----------2-|---------------|
|-1------------|-2-------------|-0-----------|---------------|
|--------------|---------------|-------------|---------------|



Refrain
 Am
|-8-----7----5-|----------|-8------7----5-|----------|
|--------------|----------|---------------|----------|
|-9-----7----5-|----------|-9------7----5-|----------|
|--------------|----------|---------------|----------|
|--------------|----------|---------------|----------|
|--------------|----------|---------------|----------|

E                         F               E
|-7-----5----4-|----------|-5------3----0-|----------|
|--------------|----------|---------------|----------|
|-7-----5----4-|----------|-5------4----1-|----------|  x2
|--------------|----------|---------------|----------|
|--------------|----------|---------------|----------|
|--------------|----------|---------------|----------|

Am (offbeat)        E            E            F            E
|----5-----5--|-    |------------|------------|------------|------------|
|----5-----5--|-    |---------0--|---------0--|---------1--|---------1--|
|----5-----5--|- x4 |----0-1-----|----0-1-----|----0-2-----|----0-1-----|
|----7-----7--|-    |-2----------|-2----------|-3----------|-2----------|
|----7-----7--|-    |------------|------------|------------|------------|
|----5-----5--|-    |------------|------------|------------|------------|

Am (offbeat)        E            E            F            E
|----5-----5--|-    |------------|------------|-------------|------------|
|----5-----5--|-    |---------0--|---------0--|---------1---|------------|
|----5-----5--|- x4 |----0-1-----|----0-1-----|----0-2----2-|------------|
|----7-----7--|-    |-2----------|-2----------|-3-----------|-2----------|
|----7-----7--|-    |------------|------------|-------------|------------|
|----5-----5--|-    |------------|------------|-------------|------------|



Solo
 A5                                                  E
|-------------|-------------|----------|------------|------------|----------|
|-------------|-------------|----------|bend up+down|------------|----------|
|-------------|-------------|-2--------|---2--4--2--|-1----------|----------|
|-------------|-------2-----|----------|------------|---------1--|-2--------|
|-0--------2--|-3-----------|----------|------------|------------|----------|
|-------------|-------------|----------|------------|------------|----------|

F             E             A5
|-------------|-------------|-------------|-------------|----------|
|-------------|-------------|-------------|-------------|----------|
|----2-----2--|----2-----2--|-------------|-5-----7-----|-9 ~~~~---|
|-3-----2-----|-0-----------|-0--2--5--7--|-7-----9-----|-10 ~~~~--|
|-------------|-------3-----|-------------|-------------|----------|
|-------------|-------------|-------------|-------------|----------|

E                     F                   E                 A5
|-------------|-----------|---------|-------------------|-----------------|---
|-------------|-----------|---------|-------------------|-----------------|---
|-10----10----|-9---------|---------|-12-0-10-0-9-0-7-0-|-9-0-7-0-5-0-4-0-|-2~
|-12----12----|-9------8--|-9-------|-------------------|-----------------|---
|-------------|-----------|---------|-------------------|-----------------|---
|-------------|-----------|---------|-------------------|-----------------|---



Lyrics

you got your guns straight by your side
you know how to use them right
when you shoot you shoot to kill
now who`s gonna bleed tonight
high noon in the red room
we`re licking our wounds
someday sometime
hello bye and bye

this town is wildly rotten
when we`ll be burning it down
we will not be be forgotten
when it`s one more time around

bye bye love can`t you see
oh the girl is not good for me
bye bye love shame on me
oh the girl is not good,she`s not good for me

everything is going right
everybody`s looking for a fight

i come to your door
just like i did before
you are my perferct drug
i`ll be swept under your rug
high noon in the red room
we`re licking our wounds
hello bye and bye
someday sometimes

this town is wildly rotten
when we`ll be burning it down
we will not be be forgotten
when it`s one more time around

bye bye love can`t you see
oh the girl is not good for me
bye bye love shame on me
oh the girl is not good, she`s not good for me

everything is going right
everybody`s looking for a fight

***
**
*
 
 
Baby Universal - Bye Bye Love :: indexed at Ultimate Guitar.
Bye Bye Love tabs @ 911Tabs

Quick tip, so you can enjoy Bye Bye Love even more:

You might want to transpose the song if it is too high or too low for you to sing. Just click the desired option while playing a song and all the chords will automatically be transponded into a new key.

Show us your talent, perform Bye Bye Love!

Here you can post a video or audio performance. Tell me more ...
Where can we find your performance? Tell me more ...
Your comment:
Please, log in to post your performance.