Artists by letter: A B C D E F G H I J K L M N O P Q R S T U V W X Y Z 0-9

 
Nieznane
-------------------------------------------------------------------------------
                             SONG NAME - Band Name
-------------------------------------------------------------------------------
Tabbed by:
E-mail:

Tuning:
         A           E           Bm          D
e|----------------------------------------2-----2---------------------------|
B|----2-----2-----0-----0-----3-----3-----3-----3---------------------------|
G|----2-----2-----1-----1-----4-----4-----2-----2---------------------------|
D|----2-----2-----2-----2-----4-----4--0-----0------------------------------|
A|-0-----0-----------------2-----2------------------------------------------|
E|-------------0-----0------------------------------------------------------|

e|----------------------------------------2-----2---------------------------|
B|----2-----2-----0-----0-----3-----3-----3-----3---------------------------|
G|----2-----2-----1-----1-----4-----4-----2-----2---------------------------|
D|----2-----2-----2-----2-----4-----4--0-----0------------------------------|
A|-0-----0-----------------2-----2------------------------------------------|
E|-------------0-----0------------------------------------------------------|X20

Ooo

Ja chce tutaj zosta─ç z tob─  by─ç
Złapać te chwile do słoika
Kiedy mamy siebie wszystko znika
tutaj zosta─ç z tob─  by─ç
Kiedy tw├│j nosek mnie dotyka *2

To było zapisane
Kobieta i m─Ö┼╝czyzna z innych planet
Dwa serca bij─  jednym rytmem
Tak jest nam dane
Ci─ gle id─  w stron─Ö odkrywaj─  co nieznane
Co wiecz├│r zamykaj─  oczy otwieraj─  je nad ranem
A gdy odpoczywaj─  powieki trzymaj─  za r─Öce
A jej r─Öce wype┼énione s─  po brzegi sercem
A to serce kryje w sobie emocje wulkany
To dla niej ksi─Ö┼╝yc z gwiazd jest to wiecz├│r okradany
To całe pochodnie ej ej i będę do końca życia twoim ogniem
 Wezme na r─Öce cie ej razem pokonamy wi─Öcej
 ref *2
Jeszcze nie dawno i jaki┼Ť czas temu nawet nie wiedzieli┼Ťmy o swoim istnieniu
Teraz nie potrafimy wytłumaczyć czemu kiedy ciebie nie ma obok to brakuje mi tlenu
bo ja wezme na r─Öce ukradn─Ö serce mocne ┼Ťcisne d┼éonie stane w obrnie gdy zamykasz 
oczy mo┼╝esz spa─ç spokojnie
 czasem s─  chwile ┼╝e serce z roozumem ┼╝yj─  jak na wojnie ale gdy jeste┼Ť blisko w 
brzuchu motyle w sercu galopuj─  konie

 i chocia┼╝ nie mo┼╝e by─ç zawsze tak jak chcemy
 o nie o nie o nie  zamknij oczy ja te┼╝ zamkne i uciekniemy (tam daleko) ..     *2
.... ref*2


Oooo

************************************

| /   slide up
| \   slide down
| h   hammer-on
| p   pull-off
| ~   vibrato
| +   harmonic
| x   Mute note
| b   Bend
| pb  Pre-bend
| br  Bend release
| pbr Pre-bend release
| brb Bend release bend

************************************
 
 
Adro - Nieznane :: indexed at Ultimate Guitar.
Nieznane tabs @ 911Tabs
People who played Adro - Nieznane also played these songs by Adro:
Nieznane Tab

Quick tip, so you can enjoy Nieznane even more:

After the registration (which takes just 10 seconds, remember?) you will be able to use your profile - your very own piece of YourChords.com.

Show us your talent, perform Nieznane!

Here you can post a video or audio performance. Tell me more ...
Where can we find your performance? Tell me more ...
Your comment:
Please, log in to post your performance.