Artists by letter: A B C D E F G H I J K L M N O P Q R S T U V W X Y Z 0-9

 
If Looks Could Kill
A Heartwell Ending : If Looks Could Kill
Tabbed by          : Hariz Abdul Hadi (twitter.com/CubaTryTest)
Tunning            : Dropped D

-------------------------------------------
This tab is ear-transcribe.
Meaning I tabbed it out the way I hear it.
So its not 100% accurate.
Also note tht the tuning is DROPPED D!
Last but not least, Please rate my tab :)

VISIT: www.TuneMyBass.com to learn how to
       tune your guitar to DROPPED D.

-------------------------------------------
h - hammer on
/ - slide
* - let ring
-------------------------------------------

Tunning DROPPED D, here you go:

[INTRO] x3

Guitar 1 (Clean)
e|---------------------------------|
B|---------------------------------|
G|---------------------------------|
D|-8-8-8-8-8-8-8-8-8-8-8-8-8-8-8-8-|
A|-6-6-6-6-6-6-6-6-6-6-6-6-6-6-6-6-|
D|---------------------------------|

e|---------------------------------|
B|---------------------------------|
G|---------------------------------|
D|---------------------------------|
A|-5-5-5-5-5-5-5-5-5-5-5-5-5-5-5-5-|
D|-5-5-5-5-5-5-5-5-5-5-5-5-5-5-5-5-|

Guitar 2 (Clean)
e|---------------------------------|
B|-15--------------15--------------|
G|-15--------------15--------------|
D|-13--------------13--------------|
A|---------------------------------|
D|---------------------------------|

e|---------------------------------|
B|-15--------------15--------------|
G|-15--------------15--------------|
D|-12--------------12--------------|
A|---------------------------------|
D|---------------------------------|

[CHORUS] x2
e|---------------------------------|
B|---------------------------------|
G|---------------------------------|
D|-1-1-1-1-1-1-1-1-1-1-1-1-1-1-1-1-|
A|-1-1-1-1-1-1-1-1-1-1-1-1-1-1-1-1-|
D|-1-1-1-1-1-1-1-1-1-1-1-1-1-1-1-1-|

e|---------|--------|--------|-----|
B|---------|--------|--------|-----|
G|---------|--------|--------|-----|
D|-333-5-55|333-5-55|333-5-55|333-5|
A|-333-5-55|333-5-55|333-5-55|333-5|
D|-333-5-55|333-5-55|333-5-55|333-5|

[VERSE]
e|-----|----|----|----|
B|-----|----|----|----|
G|-8-88|8-88|8-88|8-88|
D|-8-88|8-88|8-88|8-88|
A|-6-66|6-66|6-66|6-66|
D|-----|----|----|----|

e|-----|----|----|----|
B|-----|----|----|----|
G|-----|----|----|----|
D|-5-55|5-55|5-55|5-55|
A|-5-55|5-55|5-55|5-55|
D|-5-55|5-55|5-55|5-55|

e|-----|----|----|----|
B|-----|----|----|----|
G|-8-88|8-88|8-88|8-88|
D|-8-88|8-88|8-88|8-88|
A|-6-66|6-66|6-66|6-66|
D|-----|----|----|----|

e|--------------------------|
B|--------------------------|
G|--------------------------|
D|-5-5-5-5-5-5-5-555-5-5-5-5|
A|-5-5-5-5-5-5-5-555-5-5-5-5|
D|-5-5-5-5-5-5-5-555-5-5-5-5|

[CHORUS]x2
[VERSE]
[CHORUS]x2

[BRIDGE]

Guitar 1 (Clean) plays this x2:
e|--------------------------------|
B|--------------------------------|
G|--------------------------------|
D|-8-8-8-8-8-8-8-8-8-8-8-8-8-8-8-8|
A|-6-6-6-6-6-6-6-6-6-6-6-6-6-6-6-6|
D|--------------------------------|

e|--------------------------------|
B|--------------------------------|
G|--------------------------------|
D|--------------------------------|
A|-5-5-5-5-5-5-5-5-5-5-5-5-5-5-5-5|
D|-5-5-5-5-5-5-5-5-5-5-5-5-5-5-5-5|

Guitar 2 (Clean) plays this:
e|----------------|5-5-5-5-6-6-6-6|
B|-4-4-4-4-4-4-4-4|---------------|
G|----------------|---------------|
D|----------------|---------------|
A|----------------|---------------|
D|----------------|---------------|

e|----------------|5-5-5-5-6-6-6-6|
B|-3-3-3-3-3-3-3-3|---------------|
G|----------------|---------------|
D|----------------|---------------|
A|----------------|---------------|
E|----------------|---------------|

e|----------------|5-5-5-5-6-6-6-6|
B|-4-4-4-4-4-4-4-4|---------------|
G|----------------|---------------|
D|----------------|---------------|
A|----------------|---------------|
D|----------------|---------------|

e|----------------|5-5-5-5-6|
B|-3-3-3-3-3-3-3-3|---------|
G|----------------|---------|
D|----------------|---------|
A|----------------|---------|
D|----------------|---------|

I'm not sure for the 2nd part of the bridge,
but I think it sounds like this:

(Palm Mute)
e|---------------------------|
B|---------------------------|
G|---------------------------|  
D|-00-8-00-7-00-5-00-3-00-5/7| x2
A|---------------------------|
D|---------------------------|
PM .. . .. . .. . .. . .. . .

e|---------------------------|
B|---------------------------|
G|-00-8-00-7-00-5-00-3-00-2/3| x2
D|---------------------------|
A|---------------------------|
D|---------------------------|
PM .. . .. . .. . .. . .. . .

e|-----1*--------------------|
B|---------------------------|
G|-2h3-----------------------| 
D|---------------------------|
A|---------------------------|
D|---------------------------|

Guitar 1 (Distorted)
e|-----|
B|-----|
G|-----| 
D|-----|
A|-8/0-|
D|-----|

e|------------------------|
B|------------------------|
G|-----8-----8-----------8|
D|-555-8-555-8-555555555-8|
A|-555---555---555555555--|
D|-555---555---555555555--|

e|---------------------------|
B|---------------------------|
G|-----8-----8-----------8---|
D|-555-8-555-8-555555555-8-1*|
A|-555---555---555555555---1*|
D|-555---555---555555555---1*|

e|-----|
B|-----|
G|-----| 
D|-----|
A|-8/0-|
D|-----|

e|------------------------|
B|------------------------|
G|-----8-----8-----------8|
D|-555-8-555-8-555555555-8|
A|-555---555---555555555--|
D|-555---555---555555555--|

e|---------------------------|
B|---------------------------|
G|-----8-----8-----------8---|
D|-555-8-555-8-555555555-8-3*|
A|-555---555---555555555---3*|
D|-555---555---555555555---3*|

[CHORUS] x2

[OUTRO] x4

Guitar 1 (Clean)
e|--------------------------------|
B|--------------------------------|
G|--------------------------------|
D|-8-8-8-8-8-8-8-8-8-8-8-8-8-8-8-8|
A|-6-6-6-6-6-6-6-6-6-6-6-6-6-6-6-6|
D|--------------------------------|

e|--------------------------------|
B|--------------------------------|
G|--------------------------------|
D|-5-5-5-5-5-5-5-5-5-5-5-5-5-5-5-5|
A|-5-5-5-5-5-5-5-5-5-5-5-5-5-5-5-5|
D|-5-5-5-5-5-5-5-5-5-5-5-5-5-5-5-5|

-End-

This is my first tab, PLEASE RATE!
If there's anything wrong with it, please PM me: [email protected]
 
 
A Heartwell Ending - If Looks Could Kill :: indexed at Ultimate Guitar.
If Looks Could Kill tabs @ 911Tabs

Quick tip, so you can enjoy If Looks Could Kill even more:

After the registration (which takes just 10 seconds, remember?) you will be able to use your profile - your very own piece of YourChords.com.

Show us your talent, perform If Looks Could Kill!

Here you can post a video or audio performance. Tell me more ...
Where can we find your performance? Tell me more ...
Your comment:
Please, log in to post your performance.