Artists by letter: A B C D E F G H I J K L M N O P Q R S T U V W X Y Z 0-9

 
Here We Go Again Tab
Hey guys, noticed many of the tabs showed the intro and solo of this song as single
when if you listen carefully it is actually played in octaves...I think this version is 
perfect.

Tabbed by MEGAZORD www.myspace.com/frankie_prettyhatemachin


Intro/Pre-Verse


Guitar 1 - Josh
E-----------------------------------------------|
B-----------------------------------------------|
G--16-16--11--13--9--8-8---8/9/8----------------|
D--x--x---x---x---x--x-x---x/x/x----------------|
A--14-14--9---11—-7--6-6---6/7/6----------------|
E-----------------------------------------------|

E-----------------------------------------------|
B-----------------------------------------------|
G--16-16--11--13--9--8--4---4/6-6---4/6~--------|
D--x--x---x---x---x--x--x---x/x-x---x/x~--------|
A--14-14--9---11—-7--6--2---2/4-4---2/4~--------|
E-----------------------------------------------|

Guitar 2 - Hunter
E-----------------------------------------------|
B-----------------------------------------------|
G--2-2-2-2-6-6-6-6------------------------------|  x2
D--2-2-2-2-6-6-6-6------------------------------|
A--0-0-0-0-4-4-4-4------------------------------|
E-----------------------------------------------|


Verse

Guitar 1 - Josh
E-----------------------------------------|
B--9---9---10---10---12---12---12---12----|
G----9---9----9----9----9----9----9----9--|  x4
D-----------------------------------------|
A-----------------------------------------|
E-----------------------------------------|

Guitar 2 - Hunter
E-----------------------------------------|
B-----------------------------------------|
G--2-2-2-2-6-6-6-6------------------------|  x4
D--2-2-2-2-6-6-6-6------------------------|
A--0-0-0-0-4-4-4-4------------------------|
E-----------------------------------------|


Chorus

Guitar 2 - Hunter

E-----------------------------------------------|   x2
B-----------------------------------------------|
G--2---------6--------8------9------------------|
D--2-(x16)---6-(x8)---8-(x4)-9-(x4)-------------|
A--0---------4--------6------7------------------|
E-----------------------------------------------|


Guitar 1 - Josh

E-----------------------------------------------|
B---9-(x4)---10-(x4)---12-(x4)---10-(x2)---9(x2)|
G-----------------------------------------------|
D-----------------------------------------------|
A-----------------------------------------------|
E-----------------------------------------------|
                                                     x3
E---12-(x4)---11-(x12)--------------------------|
B-----------------------------------------------|
G-----------------------------------------------|
D-----------------------------------------------|
A-----------------------------------------------|
E-----------------------------------------------|

Then on the fourth it changes to:

E-----------------------------------------------|
B---9-(x4)---10-(x4)---12-(x4)---10-(x2)---9(x2)|
G-----------------------------------------------|
D-----------------------------------------------|
A-----------------------------------------------|
E-----------------------------------------------|

E---12-(x4)---11-(x4)---7-(x8)------------------|
B-----------------------9-----------------------|
G-----------------------------------------------|
D-----------------------------------------------|
A-----------------------------------------------|
E-----------------------------------------------|


Pre-verse (same notes, slight variation but you'll figure it out)

Verse and Chorus

Pre-Solo

Guitar 1 - Josh (this guitar plays this part alone)
E-----------------------------------------------|
B-----------------------------------------------|
G--16-16--11--13--9--8-8---8/9/8----------------|
D--x--x---x---x---x--x-x---x/x/x----------------|
A--14-14--9---11—-7--6-6---6/7/6----------------|
E-----------------------------------------------|

E-----------------------------------------------|
B-----------------------------------------------|
G--16-16--11--13--9--8--4---4/6-6---4/6~--------|
D--x--x---x---x---x--x--x---x/x-x---x/x~--------|
A--14-14--9---11—-7--6--2---2/4-4---2/4~--------|
E-----------------------------------------------|

E-----------------------------------------------|
B-----------------------------------------------|
G--16-16--11--13--9--8-8---8/9/8----------------|
D--x--x---x---x---x--x-x---x/x/x----------------|
A--14-14--9---11—-7--6-6---6/7/6----------------|
E-----------------------------------------------|

E-----------------------------------------------|
B-----------------------------------------------|
G--16-16--11--13--9--999-88888------------------|
D--x--x---x---x---x--xxx-xxxxx------------------|
A--14-14--9---11—-7--777-66666------------------|
E-----------------------------------------------|


Solo

Guitar 2 - Hunter
E-----------------------------------------------|
B-----------------------------------------------|
G--2---------6--------8------9------------------|
D--2-(x16)---6-(x8)---8-(x4)-9-(x4)-------------|
A--0---------4--------6------7------------------|
E-----------------------------------------------|

Guitar 1 - Josh

E-----------------------------------------------|
B-----------------------------------------------|
G--13------11-------13------11------------------| x3
D--x—(x3)--x—-(x2)--x—(x2)--x—(x1)--------------|
A--11------9---—----11------9-------------------|
E-----------------------------------------------|

E-----------------------------------------------|
B-----------------------------------------------|
G--16------14-------13------11------------------|
D--x—(x2)--x—-(x2)--x—(x2)--x—(x1)--------------|
A—-14------12---—---11------9-------------------|
E-----------------------------------------------|

Guitar 2 - Hunter
E-----------------------------------------------|
B-----------------------------------------------|
G--2---------6----------------------------------|
D--2-(x16)---6-(x8)-----------------------------|
A--0---------4----------------------------------|
E-----------------------------------------------|

Guitar 1 - Josh

E-----------------------------------------------|
B-----------------------------------------------|
G--13------11-------13------11------------------| x3
D--x—(x3)--x—-(x2)--x—(x2)--x—(x1)--------------|
A--11------9---—----11------9-------------------|
E-----------------------------------------------|

E-----------------------------------------------|
B-----------------------------------------------|
G--9-------8------------------------------------|
D--x—(x4)--x—-(x4)---—--------------------------|
A--7-------6---—--------------------------------|
E-----------------------------------------------|

Chorus


Outro

Guitar 2 - Hunter                                end on
E-----------------------------------------------|-------|
B-----------------------------------------------|-------|
G--2---------6--------8------9------------------|---2---|
D--2-(x16)---6-(x8)---8-(x4)-9-(x4)-------------|---2---|
A--0---------4--------6------7------------------|---0---|
E-----------------------------------------------|-------|

Guitar 1 - Josh                              end on
E-----16--------16-------16----14----16-----|--12--|
B--14----14--14----14-14----14----14----14--|------|
G-------------------------------------------|------|
D-------------------------------------------|------|
A-------------------------------------------|------|
E-------------------------------------------|------|

 
 
Paramore - Here We Go Again Tab :: indexed at Ultimate Guitar.
Here We Go Again tabs @ 911Tabs

About the artist behind Here We Go Again Tab:

Paramore (IPA: /'pærəmɔər/) is an American rock band that formed in Franklin, Tennessee in 2004 consisting of Hayley Williams (lead vocals/keyboard), Josh Farro (lead guitar/backing vocals), Jeremy Davis (bass guitar), and Zac Farro (drums). The group released their debut album All We Know Is Falling in 2005, and their second album Riot! in 2007, which was certified gold in the US and the UK.

Indexed at Wikipedia.

Show us your talent, perform Here We Go Again Tab!

Here you can post a video or audio performance. Tell me more ...
Where can we find your performance? Tell me more ...
Your comment:
Please, log in to post your performance.