Artists by letter: A B C D E F G H I J K L M N O P Q R S T U V W X Y Z 0-9

 
Poker Face
-------------------------------------------------------------------------------
                             Poker Face - You Me At Six
-------------------------------------------------------------------------------
Tabbed by: cannibal_freak1
Email: [email protected]

Tuning: Drop D

I'm pretty sure it's played half a step lower
But to save confusion, i've tabbed it in standard Drop D but played everything a fret down.

Intro
Guitar 1&2
e|-------------------------------|
B|-------------------------------|
G|---6-6-6-8---6-6-6-8---6-6-6---|
D|---4-4-4-6---4-4-4-6---4-4-4---|
A|---4-4-4-6---4-4-4-6---4-4-4---|
D|---4-4-4-6---4-4-4-6---4-4-4---|

Verse1
Guitar1
e|-------------------------------------|
B|-------------------------------------|
G|-------------------------------------|
D|---6-6-------------6-6-----4-4-------| x6
A|-----------6-6---------7-------------|
D|-------6-6-----6-6-------9-----4-4---|
PM   ...............................

Guitar 2
e|-------------------------------------|
B|-------------------------------------|
G|---8`8-8-8-8-8-8-8-8-8-8-8-8-8-8-8---|
D|---6-6-6-6-6-6-6-6-6-6-6-6-6-6-6-6---| x6
A|-------------------------------------|
D|-------------------------------------|
PM   ...............................

Pre-Chorus
Guitar1
e|------------------------------------|
B|------------------------------------|
G|---8--8--8--8--8--8---11-11-11-11---|
D|---6--6--6--6--6--6---9--9--9--9----| x3
A|------------------------------------|
D|------------------------------------|
Guitar1
e|-------------------|
B|-------------------|
G|---8--8--8--8--8---|
D|---6--6--6--6--6---| x1
A|-------------------|
D|-------------------|

Guitar2
e|------------------------------|
B|------------------------------|
G|------8-7-------8-7-8-7-------|
D|---6-------9-6----------4-6---| x3
A|------------------------------|
D|------------------------------|
Guitar2
e|----------------|
B|----------------|
G|------8-7-------|
D|---6-------9-6--| x1
A|----------------|
D|----------------|

Chorus
Guitar1                                                                   2nd time around
e|-----------------------------------------------------------------------|-----|
B|-----------------------------------------------------------------------|-----|
G|-------------------------------------4-4-4-4-4-4-4-4-------------------|-----|
D|---6-6-6-6-6-6-6-6--2-2-2-2-2-2-2-2--4-4-4-4-4-4-4-4--4-4-4-4-4-4-4-4--|--6--| x2
A|---6-6-6-6-6-6-6-6--2-2-2-2-2-2-2-2--2-2-2-2-2-2-2-2--4-4-4-4-4-4-4-4--|--6--|
D|---6-6-6-6-6-6-6-6--2-2-2-2-2-2-2-2-------------------4-4-4-4-4-4-4-4--|--6--|

Guitar2                                                                   2nd time around
e|-----------------------------------------------------------------------|-----|
B|-----------------------------------------------------------------------|-----|
G|---8-8-8-8-8-8-8-8--1111111111111111-8-8-8-8-8-8-8-8--3-3-3-3-3-3-3-3--|--8--|
D|-----------------------------------------------------------------------|-----| x2
A|---6-6-6-6-6-6-6-6--9-9-9-9-9-9-9-9--6-6-6-6-6-6-6-6--1-1-1-1-1-1-1-1--|--6--|
D|-----------------------------------------------------------------------|-----|

Pre-Verse
Guitar 1&2
e|-------------|
B|-------------|
G|---6-6-6-8---|
D|---4-4-4-6---|
A|---4-4-4-6---|
D|---4-4-4-6---|

Verse1
Guitar1
e|-------------------------------------|
B|-------------------------------------|
G|-------------------------------------|
D|---6-6-------------6-6-----4-4-------| x6
A|-----------6-6---------7-------------|
D|-------6-6-----6-6-------9-----4-4---|
PM   ...............................

Guitar 2
e|-------------------------------------|
B|-------------------------------------|
G|---8`8-8-8-8-8-8-8-8-8-8-8-8-8-8-8---|
D|---6-6-6-6-6-6-6-6-6-6-6-6-6-6-6-6---| x6
A|-------------------------------------|
E|-------------------------------------|
PM   ...............................

Pre-Chorus
Guitar1
e|-----------------------------|
B|-----------------------------|
G|-----------------------------|
D|---6---4-6---4-4-4-6---4-6---|
A|---6---4-6---4-4-4-6---4-6---|
D|---6---4-6---4-4-4-6---4-6---|

Guitar2
e|-------------------------------------------|
B|-------------------------------------------|
G|------8-7-------8-7-8-7----------8-7-------|
D|---6-------9-6----------4-6---6------9-6---|
A|-------------------------------------------|
D|-------------------------------------------|

Chorus
Guitar1                                                                   4th time around
e|-----------------------------------------------------------------------|-----|
B|-----------------------------------------------------------------------|-----|
G|-------------------------------------4-4-4-4-4-4-4-4-------------------|-----|
D|---6-6-6-6-6-6-6-6--2-2-2-2-2-2-2-2--4-4-4-4-4-4-4-4--4-4-4-4-4-4-4-4--|--6--| x4
A|---6-6-6-6-6-6-6-6--2-2-2-2-2-2-2-2--2-2-2-2-2-2-2-2--4-4-4-4-4-4-4-4--|--6--|
D|---6-6-6-6-6-6-6-6--2-2-2-2-2-2-2-2-------------------4-4-4-4-4-4-4-4--|--6--|

Guitar2                                                                   4th time around
e|-----------------------------------------------------------------------|-----|
B|-----------------------------------------------------------------------|-----|
G|---8-8-8-8-8-8-8-8--1111111111111111-8-8-8-8-8-8-8-8--3-3-3-3-3-3-3-3--|--8--|
D|-----------------------------------------------------------------------|-----| x4
A|---6-6-6-6-6-6-6-6--9-9-9-9-9-9-9-9--6-6-6-6-6-6-6-6--1-1-1-1-1-1-1-1--|--6--|
D|-----------------------------------------------------------------------|-----|

Pre-Bridge
Guitar1
e|--------|
B|--------|
G|--------|
D|---6~---|
A|---6~---|
D|---6~---|

Guitar2
e|--------------------------------------|
B|--------------------------------------|
G|---------8-7-7------------8-7-8-7-----|
D|---6-6-6-------9-9--6-6-6---------4---| x4
A|--------------------------------------|
D|--------------------------------------|
PM   ................................

Bridge
Guitar1 (on the fourth time, gradually release the palm mute)
e|-------------------------------------|
B|-------------------------------------|
G|-------------------------------------|
D|-------------------------------------| x4
A|---6-6-6-6-6-6-6-6-6-6-6-6-6-6-6-6---|
D|---6-6-6-6-6-6-6-6-6-6-6-6-6-6-6-6---|
PM   ...............................

Guitar2 (on the fourth time, gradually release the palm mute)
e|--------------------------------------|
B|--------------------------------------|
G|---------8-7-7------------8-7-8-7-----|
D|---6-6-6-------9-9--6-6-6---------4---| x4
A|--------------------------------------|
D|--------------------------------------|
PM   ................................

Chorus
Guitar1
e|--------------------------------------|
B|--------------------------------------|
G|---4-4-4-4-4-4-4-4--------------------|
D|---4-4-4-4-4-4-4-4--4-4-4-4-4-4-4-4---|
A|---2-2-2-2-2-2-2-2--4-4-4-4-4-4-4-4---|
D|--------------------4-4-4-4-4-4-4-4---|

Guitar2
e|----------------------------------------------|
B|----------------------------------------------|
G|---8-8-8-8-8-8-8-8--15-15-15-15-15-15-15-15---|
D|----------------------------------------------|
A|---6-6-6-6-6-6-6-6--13-13-13-13-13-13-13-13---|
D|----------------------------------------------|

Chorus
Guitar1
e|-----------------------------------------------------------------------|
B|-----------------------------------------------------------------------|
G|-------------------------------------4-4-4-4-4-4-4-4-------------------|
D|---6-6-6-6-6-6-6-6--2-2-2-2-2-2-2-2--4-4-4-4-4-4-4-4--4-4-4-4-4-4-4-4--| x4
A|---6-6-6-6-6-6-6-6--2-2-2-2-2-2-2-2--2-2-2-2-2-2-2-2--4-4-4-4-4-4-4-4--|
D|---6-6-6-6-6-6-6-6--2-2-2-2-2-2-2-2-------------------4-4-4-4-4-4-4-4--|

Guitar2                                                                   
e|-----------------------------------------------------------------------|
B|-----------------------------------------------------------------------|
G|---8-8-8-8-8-8-8-8--1111111111111111-8-8-8-8-8-8-8-8--3-3-3-3-3-3-3-3--|
D|-----------------------------------------------------------------------| x4
A|---6-6-6-6-6-6-6-6--9-9-9-9-9-9-9-9--6-6-6-6-6-6-6-6--1-1-1-1-1-1-1-1--|
D|-----------------------------------------------------------------------|

Outro
Guitar1
e|---------------------------------------------------------------------------|
B|---------------------------------------------------------------------------|
G|---------------------------------------------------------------------------|
D|-------------------------4-6-----------------------------------------------|
A|------6-5-------6-5-6-5--4-6------------------------------------------------------|
D|---6-------9-6-----------4-6-----------------------------------------------------|

Guitar2
e|-------------------------------|
B|-------------------------------|
G|------8-7-------8-7-8-7--------|
D|---6-------9-6-----------4-6---|
A|-------------------------------|
D|-------------------------------|

| /  slide up
| \  slide down
| h  hammer-on
| p  pull-off
| ~  vibrato
| +  harmonic
| x  Mute note
===============================================================================
 
 
You Me At Six - Poker Face :: indexed at Ultimate Guitar.
Poker Face tabs @ 911Tabs

Quick tip, so you can enjoy Poker Face even more:

If you don't really know how to deal with "Absus4" chord and his equally confusing brothers, just put the mouse cursor over them and you will be shown a helpful chord diagram.

Show us your talent, perform Poker Face!

Here you can post a video or audio performance. Tell me more ...
Where can we find your performance? Tell me more ...
Your comment:
Please, log in to post your performance.