Artists by letter: A B C D E F G H I J K L M N O P Q R S T U V W X Y Z 0-9

 
Loverboy
****REALISED A LOT OF THIS IS VERY WRONG, CAN'T DELETE IT, VERY SORRY****
The AMAZING new song from you me at six ... I had to tab it because, well, It's fantastic!

It's probably not 100% correct - trying to work it out on an acoustic wasn't so easy! so 
any corrections/suggestions welcome!

Droppped D Tuning

Intro:

e|------------------------------|
B|------------------------------|
G|------------------------------|   X1 then the bass does it twice and then
D|---0-3-7-9-15-14-12-9-12-0-0--|   come back in with it again for the verse
A|---0-3-7-9-15-14-12-9-12-0-0--|   and repeat until chorus
D|---0-3-7-9-15-14-12-9-12-0-0--|

Chorus:

e|-----------------------------------------|
B|-----------------------------------------|
G|--5-5-5--5-3-3-3-3-3-3-3-3---------------| X2
D|--7-7-7--7-5-5-5-5-5-5-5-5-3-3-3-5-5-5-5-|
A|--7-7-7--7-5-5-5-5-5-5-5-5-3-3-3-5-5-5-5-|
D|---------------------------3-3-3-5-5-5-5-|

then repeat the intro riff and the chorus again

the last chord progression before the solo goes

e|---------------------------------------------|
B|---------------------------------------------|
G|--5-5-5--5-3-3-3-3-3-3-3-3-------------------|
D|--7-7-7--7-5-5-5-5-5-5-5-5-3-3-3-5-5-5-5--7~-|
A|--7-7-7--7-5-5-5-5-5-5-5-5-3-3-3-5-5-5-5--7~-|
D|---------------------------3-3-3-5-5-5-5--7~-|

Solo:

e|---------------------------------------------------15-----15-------------|
B|----------------------------------------------15h17--15h17--15h17-17-15--|
G|------10-12----10-12----/14-12-10-12-10----------------------------------|
D|--12~-------12-------12-----------------12-12----------------------------|
A|-------------------------------------------------------------------------|
D|-------------------------------------------------------------------------|

e|--17b--17b--17b--17b--17-15------------------------|
B|----------------------------15~--------------------|
G|---------------------------------------5-5-5--5-3--|
D|---------------------------------------7-7-7--7-5--|
A|---------------------------------------7-7-7--7-5--|
D|---------------------------------------------------|

Then the chorus again followed by our favorite little 'intro' riff once!

so there you go... definitely not a perfect tab but my shot at it, comment any 
corrections! :)
 
 
You Me At Six - Loverboy :: indexed at Ultimate Guitar.
Loverboy tabs @ 911Tabs

Quick tip, so you can enjoy Loverboy even more:

If you don't really know how to deal with "Absus4" chord and his equally confusing brothers, just put the mouse cursor over them and you will be shown a helpful chord diagram.

Show us your talent, perform Loverboy!

Here you can post a video or audio performance. Tell me more ...
Where can we find your performance? Tell me more ...
Your comment:
Please, log in to post your performance.