Artists by letter: A B C D E F G H I J K L M N O P Q R S T U V W X Y Z 0-9

 
You And Me And One Spotlight
By-Francis
Location - Carmelite, Lucena City
Cp #- 09287150674 
E-add- [email protected]  (friendster)add me!
School- Sacred Heart College

Tuning- Guitar1={ e b g d A E }
        Guitar2={ e b g d A E }
        Piano=Guitar={ e b g d A E }
        Bass=Guitar={ e b g d A E }
Intro-
Bass=Guitar

|-----------------------------------------|
|-----------------------------------------|
|-------7---------------7-----------------|
|-----7---7--5-4------7---7--5--4---------|
|-5----------------5----------------------|
|-----------------------------------------|

Verse-

It won't be long now....

Guitar1
|--3------2------0-----0-----0-----------0-----0-----0-----0-----|
|----3------3------3-----3-----3-------2---2-----2-----2---------|
|----------------------------------------------------------------|
|------0-------0-----0-----0-----0---0-------0-----0-----0-------|4x
|----------------------------------------------------------------|
|----------------------------------------------------------------|

Bass=Guitar
|------------------------------------------------------------------------------|
|------------------------------------------------------------------------------|
|--------7------------------------7----------------7-------------7-------------|
|------7---7--5-4--------------7---7--5--4-------7---7--5--4---7---7--5--4-----|
|--5------------------------5--------------------------------7-----------------|
|----------------------------------------------7-------------------------------|



Refrain-

Go put on your best tonight
It's you and me and one spotlight
One more show one last time
We are ready

Guitar1
|---------------|---------------|-------------------|----------|
|---------------|---------------|-------------------|----------|
|---------------|---------------|-------------------|--7777----|x
|---------------|---------------|-------------------|--7777----|x
|---------------|---------------|-------------------|--5555----|x
|---------------|---------------|-------------------|----------|
Guitar2

|---------------|---------------|-------------------|-----------|
|---------------|---------------|-------------------|-----------|
|--7--9--12--11-|--7--9--12--11-|--7--9--12--11-----|--xxxx-----|
|--x--x--x---x--|--x--x--x---x--|--x--x--x---x------|--xxxx-----|
|--5--7--10--9--|--5--7--10--9--|--5--7--10--9------|--xxxx-----|
|---------------|---------------|-------------------|-----------|



Chorus-

Say you will be all around me...

1.
Guitar1

|-------------------------|---------------------------|
|-------------------------|---------------------------|
|-7-7-7-7-7-7-7-7-7-7-7-7-|-4-4-4-4-4-4-4-4-4-4-4-4---|
|-7-7-7-7-7-7-7-7-7-7-7-7-|-4-4-4-4-4-4-4-4-4-4-4-4---|
|-5-5-5-5-5-5-5-5-5-5-5-5-|-2-2-2-2-2-2-2-2-2-2-2-2---|
|-------------------------|---------------------------|

Guitar2
|----------------------------|----------------------------|
|----------------------------|----------------------------|
|-7-999-11-11-18-18-18-14-14-|-7-999-11-11-18-18-18-14-14-|
|-x-xxx-x--x--x--x--x--x--x--|-x-xxx-x--x--x--x--x--x--x--|
|-5-777-9--9--16-16-16-12-12-|-5-777-9--9--16-16-16-12-12-|
|----------------------------|----------------------------|

2.
Guitar1

|-------------------------|---------------------------|
|-------------------------|---------------------------|
|-------------------------|---------------------------|
|---2--2--2--2--2--2--2---|---5--5--5--5--5--5--5-----|
|---2--2--2--2--2--2--2---|---5--5--5--5--5--5--5-----|
|---0--0--0--0--0--0--0---|---3--3--3--3--3--3--3-----|

Guitar2
|-------------------------|---------------------------|
|-------------------------|---------------------------|
|---7---9-9-9---11-11-----|-----7---9-9-9---11-11-----|
|---x---x-x-x---x--x------|-----x---x-x-x---x--x------|
|---5---7-7-7---9--9------|-----5---7-7-7---9--9------|
|-------------------------|---------------------------|

Repeat Verse

Guitar1
|--3------2------0-----0-----0-----------0-----0-----0-----0-----|
|----3------3------3-----3-----3-------2---2-----2-----2---------|
|----------------------------------------------------------------|
|------0-------0-----0-----0-----0---0-------0-----0-----0-------|4x
|----------------------------------------------------------------|
|----------------------------------------------------------------|

Refrain @ Do Chorus 2x

Bridge-

Guitar1
|-----------------------------------|----------------------------------|
|-----------------------------------|----------------------------------|
|--7~-------------------------------|--7~------------------------------|
|--7~-------------------------------|--7~------------------------------|
|--5~-------------------------------|--5~------------------------------|
|-----------------------------------|----------------------------------|

Guitar2
|-----------------------------------|----------------------------------|
|-----------------------------------|----------------------------------|
|-7--9--12--11-11-18--18--14-14-14--|-7--9--12--11-11-18--18--14-14-14-|
|-x--x--x---x--x--x---x---x--x--x---|-x--x--x---x--x--x---x---x--x--x--|
|-5--7--10--9--9--16--16--12-12-12--|-5--7--10--9--9--16--16--12-12-12-|
|-----------------------------------|----------------------------------|

Guitar1
|---------------|---------------|-------------------|-----------|
|---------------|---------------|-------------------|-----------|
|----4~---------|---------------|--4~---------------|-----------|
|----4~---------|----5~---------|--4~---------------|-7---------|
|----2~---------|----5~---------|--2~---------------|-7---------|
|---------------|----3~---------|-------------------|-5---------|

Guitar2

|---------------|---------------|-------------------|-----------|
|---------------|---------------|-------------------|-----------|
|--7--9--12--11-|--7--9--12--11-|--7--9--12--11-----|-18--14-14-|
|--x--x--x---x--|--x--x--x---x--|--x--x--x---x------|-x---x--x--|
|--5--7--10--9--|--5--7--10--9--|--5--7--10--9------|-16--12-12-|
|---------------|---------------|-------------------|-----------|

Repeat Intro 1x

It won't be long now...

Bass=Guitar
|-----------------------------------------|
|-----------------------------------------|
|-------7---------------------------------|
|-----7---7--5-4--------------------------|
|-5---------------------------------------|
|-----------------------------------------|

Repeat Chorus 2x

Outro-
1.
Guitar1

|-------------------------------------------------------------------------|
|-------------------------------------------------------------------------|
|--7-7-7-7-7-7-7-7-7-7-7-7-7-7-7-7-7-7-7-7-7-7-7-7-7-7-7-7-7-7-7-7-7-7-7--|
|--7-7-7-7-7-7-7-7-7-7-7-7-7-7-7-7-7-7-7-7-7-7-7-7-7-7-7-7-7-7-7-7-7-7-7--|
|--5-5-5-5-5-5-5-5-5-5-5-5-5-5-5-5-5-5-5-5-5-5-5-5-5-5-5-5-5-5-5-5-5-5-5--|
|-------------------------------------------------------------------------|

Guitar2
|----------------------------|----------------------------|
|----------------------------|----------------------------|
|-7-999-11-11-18-18-18-14-14-|-7-999-11-11-18-18-18-14-14-|
|-x-xxx-x--x--x--x--x--x--x--|-x-xxx-x--x--x--x--x--x--x--|
|-5-777-9--9--16-16-16-12-12-|-5-777-9--9--16-16-16-12-12-|
|----------------------------|----------------------------|

2.
Guitar1

|-------------------------------------------------------------------------|
|-------------------------------------------------------------------------|
|--7-7-7-7-7-7-7-7-7-7-7-7-7-7-7-7-7-7-7-7-7-7-7-7-7-7-7-7-7-7-7-7-7-7-7--|
|--7-7-7-7-7-7-7-7-7-7-7-7-7-7-7-7-7-7-7-7-7-7-7-7-7-7-7-7-7-7-7-7-7-7-7--|
|--5-5-5-5-5-5-5-5-5-5-5-5-5-5-5-5-5-5-5-5-5-5-5-5-5-5-5-5-5-5-5-5-5-5-5--|
|-------------------------------------------------------------------------|

Guitar2

|-------------------------------------------------------------------------|
|-------------------------------------------------------------------------|
|--7-7-7-7-7-7-7-7-7-7-7-7-7-7-7-7-7-7-7-7-7-7-7-7-7-7-7-7-7-7-7-7-7-7-7--|
|--x-x-x-x-x-x-x-x-x-x-x-x-x-x-x-x-x-x-x-x-x-x-x-x-x-x-x-x-x-x-x-x-x-x-x--|
|--5-5-5-5-5-5-5-5-5-5-5-5-5-5-5-5-5-5-5-5-5-5-5-5-5-5-5-5-5-5-5-5-5-5-5--|
|-------------------------------------------------------------------------|

Piano=Guitar

|---------------------|------------------|
|--------14-----------|------14----------|
|------14--14--12-11--|----14--14--12-11-|
|--12-----------------|-12---------------|Till fade
|---------------------|------------------|
|---------------------|------------------|

End With
Guitar1
|---------------|
|---------------|
|-----7~--------|
|-----7~--------|
|-----5~--------|
|---------------|

Guitar2
|---------------|
|---------------|
|-----7~--------|
|-----x---------|
|-----5~--------|
|---------------|

Lyrics-

"You And Me And One Spotlight"

It won't be long now
The music's on loud
We'll sing this song out
And then we'll lie down
Ill hold you close then
Ill let you know when
The space and time bend
And then we'll fall in

Go put on your best tonight
It's you and me and one spotlight
One more show one last time
We are ready

Say you will be all around me
When your body sets your heart free
Say you will be all around me

Ill look for your eyes
To keep me inside
When everything dies
But one last sunrise
And when we stand there together not scared
I'll dry your last tear
And then we'll just have

Go put on your best tonight
It's you and me and not much time
So watch the world burning bright

Say you will be all around me
When your body sets your heart free
Say you will be all around me
Say you'll get me before the ending
Take my body set my heart free
Say you'll get me before the ending

Go put on your best tonight
It's you and me and one spotlight
One more show one last time
It won't be long now

Say you will be all around me
When your body sets your heart free
Say you will be all around me
Say you'll get me before the ending
Take my body set my heart free
Say you'll get me before the ending
Say you will be (you won't be long)
All around me (you won't be long now)

 
 
Yellowcard - You And Me And One Spotlight :: indexed at Ultimate Guitar.
You And Me And One Spotlight tabs @ 911Tabs

About the artist behind You And Me And One Spotlight:

Yellowcard is an alternative rock multi-platinum selling band from Jacksonville, Florida. Their music features a rare contribution to the genre, incorporating the use of a violin.

The band is not currently active and is on a self-described "indefinite hiatus."

Indexed at Wikipedia.

Show us your talent, perform You And Me And One Spotlight!

Here you can post a video or audio performance. Tell me more ...
Where can we find your performance? Tell me more ...
Your comment:
Please, log in to post your performance.