Artists by letter: A B C D E F G H I J K L M N O P Q R S T U V W X Y Z 0-9

 
With You Around
Tabbed by: Joshua Garcia ([email protected])

Tabs for the song: With You Around by Yellowcard
Please rate and let me know if you have any corrections. Thank you.

Tuning: Drop D (D A D G B E)

Intro
Guitar 1/2
E||-------------------------------------------------------------------------------------|
B||-------------------------------------------------------------------------------------|
G||-------------------------------------------------------------------------------------|
D||-------------------------------------------------------------------------------------|
A||--5-5-4-4-4-4---------5-5-4-4-4------------5-5-4-4-4-4---------5-5-4-4-4-------------|
D||--0-0-0-0-0-0--'5-'5--0-0-0-0-0--'5-'5-'5--5-5-5-5-5-5--'4-'4--5-5-5-5-5--'4-'4-'4---|



Verse
Guitar 1/2:
E||---------------------------------------------------------------------------|
B||---------------------------------------------------------------------------|
G||---------------------------------------------------------------------------|
D||---------------------------------------------------------------------------| x2
A||--5-5-4-4-4-4---------5-5-4-4-4------------5-5-4-4-4-4---------5-5-4-4-4---|
D||--0-0-0-0-0-0---------0-0-0-0-0------------5-5-5-5-5-5---------5-5-5-5-5---|



Pre-Chorus
Guitar 1:
E||----10---10---10---10---9---9-------------------------------------------------|
B||--------------------------------10---10---8---8---8---8---7---7---8---8-------|
G||--7----7----7----7----7---7---7----7----7---7---7---7---7---7---7---7---(7)---|
D||------------------------------------------------------------------------------| x2
A||------------------------------------------------------------------------------|
D||------------------------------------------------------------------------------|
     .    .    .    .    .   .   .             .   .   .   .   .   .

Guitar 2:
E||---------------------------------------------------------------------------|
B||---------------------------------------------------------------------------|
G||---------------------------------------------------------------------------|
D||--4-4-4-4-4-4---------2-2-2-2-2--------------------------------------------| x2
A||--2-2-2-2-2-2---------0-0-0-0-0------------5-5-5-5-5-5---------5-5-5-5-5---|
D||-------------------------------------------5-5-5-5-5-5---------5-5-5-5-5---|



Chorus
Guitar 1/2:
E||---------------------------------------|-----------------------------------|
B||---------------------------------------|-----------------------------------|
G||--4-4-4--------------------------------|--4-4-4---2-2---7---7-7---7-7-7-7--|
D||--4-4-4---5-5---0---0-0---0-0-0-0--x2--|--4-4-4---2-2---7---7-7---7-7-7-7--|
A||--2-2-2---5-5---0---0-0---0-0-0-0------|--2-2-2---0-0---5---5-5---5-5-5-5--|
D||----------5-5---0---0-0---0-0-0-0------|-----------------------------------|

Guitar 1:
E||-------------------------------------------------------------------|
B||-------------------------------------------------------------------|
G||--12-12-12-12-12-12-12-12-11-11-11-11-11-11-11-11-9-9-9-9-9-9-9-9--|
D||--x--x--x--x--x--x--x--x--x--x--x--x--x--x--x--x--x-x-x-x-x-x-x-x--|
A||--10-10-10-10-10-10-10-10-9--9--9--9--9--9--9--9--7-7-7-7-7-7-7-7--|
D||-------------------------------------------------------------------|

Guitar 2:
E||------------------------------|
B||------------------------------|
G||-----------44444444-22222222--|
D||--22222222-44444444-22222222--|
A||--22222222-22222222-00000000--|
D||--22222222--------------------|

Guitar 1/2:
E||------|
B||------|
G||--2~--|
D||--x---|
A||--0~--|
D||------|



Verse
Guitar 1/2
E||-------------------------------------------------------------------------------------|
B||-------------------------------------------------------------------------------------|
G||-------------------------------------------------------------------------------------|
D||-------------------------------------------------------------------------------------| x2
A||--5-5-4-4-4-4---------5-5-4-4-4------------5-5-4-4-4-4---------5-5-4-4-4-------------|
D||--0-0-0-0-0-0--'5-'5--0-0-0-0-0--'5-'5-'5--5-5-5-5-5-5--'4-'4--5-5-5-5-5--'4-'4-'4---|



Pre-Chorus
Guitar 1:
E||----10---10---10---10---9---9-------------------------------------------------|
B||--------------------------------10---10---8---8---8---8---7---7---8---8-------|
G||--7----7----7----7----7---7---7----7----7---7---7---7---7---7---7---7---(7)---|
D||------------------------------------------------------------------------------| x2
A||------------------------------------------------------------------------------|
D||------------------------------------------------------------------------------|
     .    .    .    .    .   .   .             .   .   .   .   .   .

Guitar 2:
E||---------------------------------------------------------------------------|
B||---------------------------------------------------------------------------|
G||---------------------------------------------------------------------------| x2
D||---------------------------------------------------------------------------|
A||--9-9-9-9-9-9---------7-7-7-7-7------------5-5-5-5-5-5---------5-5-5-5-5---|
D||--9-9-9-9-9-9---------7-7-7-7-7------------5-5-5-5-5-5---------5-5-5-5-5---|



Chorus
Guitar 1/2:
E||---------------------------------------|-----------------------------------|
B||---------------------------------------|-----------------------------------|
G||--4-4-4--------------------------------|--4-4-4---2-2---7---7-7---7-7-7-7--|
D||--4-4-4---5-5---0---0-0---0-0-0-0--x2--|--4-4-4---2-2---7---7-7---7-7-7-7--|
A||--2-2-2---5-5---0---0-0---0-0-0-0------|--2-2-2---0-0---5---5-5---5-5-5-5--|
D||----------5-5---0---0-0---0-0-0-0------|-----------------------------------|

Guitar 1:
E||-------------------------------------------------------------------|
B||-------------------------------------------------------------------|
G||--12-12-12-12-12-12-12-12-11-11-11-11-11-11-11-11-9-9-9-9-9-9-9-9--|
D||--x--x--x--x--x--x--x--x--x--x--x--x--x--x--x--x--x-x-x-x-x-x-x-x--|
A||--10-10-10-10-10-10-10-10-9--9--9--9--9--9--9--9--7-7-7-7-7-7-7-7--|
D||-------------------------------------------------------------------|

Guitar 2:
E||------------------------------|
B||------------------------------|
G||-----------44444444-22222222--|
D||--22222222-44444444-22222222--|
A||--22222222-22222222-00000000--|
D||--22222222--------------------|

Guitar 1/2:
E||-------------------|
B||-------------------|
G||--2-2-2-2-2-2-2-2--|
D||--x-x-x-x-x-x-x-x--|
A||--0-0-0-0-0-0-0-0--|
D||-------------------|



Solo
Guitar 1:
E||----------------------------------------------------------------------------| \
B||---------10-10-10-10-10-----------------------------------------------------|  \
G||---7-7-7----------------6-6-6-7-7-7-7---7/9-9-9-9b11-9-9-7-6-6-6-6-6-7-6-7--|   \
D||--------------------------------------7-------------------------------------|    \
A||----------------------------------------------------------------------------|     \
D||----------------------------------------------------------------------------|      \
                                                                                       \
                                                                                       / x2
E||----------------------------------------------------------------------------|      /
B||---------10-10-10-10-10-----------------------------------------------------|     /
G||---7-7-7----------------6-6-6-7-7-7-7-7-7-11-9b--7-11-9b--7-11-9b--7-6-7----|    /
D||----------------------------------------------------------------------------|   /
A||----------------------------------------------------------------------------|  /
D||----------------------------------------------------------------------------| /

Guitar 2:
E||--------------------------------------------------------------------|
B||--------------------------------------------------------------------|
G||--------------------------------------------------------------------|
D||-55555555999999997777777777777777-55555555999999994444444455555555--|
A||-55555555999999997777777777777777-55555555999999994444444455555555--|
D||-55555555999999997777777777777777-55555555999999994444444455555555--|

E||-----------------------------------|
B||-----------------------------------|
G||-----------------------------------| x2
D||-55555555999999997777777777777777--|
A||-55555555999999997777777777777777--|
D||-55555555999999997777777777777777--|



Bridge
Guitar 1:
E||--10---10---10---10---9---9----------------------------------|
B||------------------------------10---10---8---8---8---8---7----|
G||-----7----7----7----7---7---7----7----7---7---7---7---7---7--|
D||-------------------------------------------------------------|
A||-------------------------------------------------------------|
D||-------------------------------------------------------------|
        .    .    .    .   .   .         .   .   .   .   .   .



Chorus
Guitar 1/2:
E||---------------------------------------|-----------------------------------|
B||---------------------------------------|-----------------------------------|
G||--4-4-4--------------------------------|--4-4-4---2-2---7---7-7---7-7-7-7--|
D||--4-4-4---5-5---0---0-0---0-0-0-0--x2--|--4-4-4---2-2---7---7-7---7-7-7-7--| x2
A||--2-2-2---5-5---0---0-0---0-0-0-0------|--2-2-2---0-0---5---5-5---5-5-5-5--|
D||----------5-5---0---0-0---0-0-0-0------|-----------------------------------|

Guitar 1:
E||-----------------------------------------------------------------------------------|
B||-----------------------------------------------------------------------------------|
G||--12-12-12-12-12-12-12-12-11-11-11-11-11-11-11-11-9-9-9-9-9-9-9-7-6-6-6-6-6-6-6-6--|
D||--x--x--x--x--x--x--x--x--x--x--x--x--x--x--x--x--x-x-x-x-x-x-x-x-x-x-x-x-x-x-x-x--|
A||--10-10-10-10-10-10-10-10-9--9--9--9--9--9--9--9--7-7-7-7-7-7-7-5-4-4-4-4-4-4-4-4--|
D||-----------------------------------------------------------------------------------|

E||-------------------------------------------------------------------|
B||-------------------------------------------------------------------|
G||--12-12-12-12-12-12-12-12-11-11-11-11-11-11-11-11-9-9-9-9-9-9-9-9--|
D||--x--x--x--x--x--x--x--x--x--x--x--x--x--x--x--x--x-x-x-x-x-x-x-x--|
A||--10-10-10-10-10-10-10-10-9--9--9--9--9--9--9--9--7-7-7-7-7-7-7-7--|
D||-------------------------------------------------------------------|

Guitar 2:
E||-------------------------------------|
B||-------------------------------------|
G||----------44444444-2222222222222222--|
D||-22222222-44444444-2222222222222222--|
A||-22222222-22222222-0000000000000000--|
D||-22222222----------------------------|

B||-----------------------------|
G||----------44444444-22222222--|
D||-22222222-44444444-22222222--|
A||-22222222-22222222-00000000--|
D||-22222222--------------------|

Guitar 1/2:
E||------|
B||------|
G||--2~--|
D||--x---|
A||--0~--|
D||------|

Outro
Guitar 1/2:
E||---------------------------------------------------------------------------|
B||---------------------------------------------------------------------------|
G||---------------------------------------------------------------------------|
D||---------------------------------------------------------------------------|
A||--5-5-4-5-5-5---------5-5-4-5-5------------5-5-4-5-5-5---------5-5-4-5-5---|
D||--0-0-0-0-0-0--'5-'5--0-0-0-0-0--'5-'5-'5--0-0-0-0-0-0--'5-'5--0-0-0-0-0---|





Tablature Legend
----------------
 h   hammer-on
 p   pull-off
 b   bend
 pb  pre-bend
 r   release bend
 ~   hold / vibrato
 .   palm mute
 /   slide up
 \   slide down
 *   pinch harmonic
 '   natural harmonic
 x   mute note
 T   tap
 
 
Yellowcard - With You Around :: indexed at Ultimate Guitar.
With You Around tabs @ 911Tabs

About the artist behind With You Around:

Yellowcard is an alternative rock multi-platinum selling band from Jacksonville, Florida. Their music features a rare contribution to the genre, incorporating the use of a violin.

The band is not currently active and is on a self-described "indefinite hiatus."

Indexed at Wikipedia.

Show us your talent, perform With You Around!

Here you can post a video or audio performance. Tell me more ...
Where can we find your performance? Tell me more ...
Your comment:
Please, log in to post your performance.