Artists by letter: A B C D E F G H I J K L M N O P Q R S T U V W X Y Z 0-9

 
Transmission Home
I've just recently really discovered Yellowcard's discography (I know, over ten years late to the party, I'm
an idiot). The intro to this song stands out to me. I believe I've got it as accurate as it gets. I also have 
a guitar pro tab that does a better job illustrating the strumming patterns. Let me know what you think.


Dropped C tuning


[Intro]

D|---------------------------------------------------------------------------|
A|---------------------------------------------------------------------------|
F|---------------------------------------------------------------------------|
C|------------4-------------0-------------4----------------------------------|
G|-----7---7----7----4---4----4----7---7----7-----9----4h5p4p0-5p4p0---------|
C|--0----0---------0---0--------0----0---------00---00--------------0--------|
PM       *         *   *        *    *         **   **        
           

D|---------------------------------------------------------------------------|
A|---------------------------------------------------------------------------|
F|-------------------------------------------14------------------------------|
C|------------4------------0----------0/--xx-14-xx------7-7------------------|
G|-----7---7----7----4---4---0--------0/--xx----xx-2--5-5-5------------------|
C|--0----0---------0---0-------0--12\--------------2--4-4-4------------------|
PM       *         *   *      

D|---------------------------------------------------------------------------|
A|---------------------------------------------------------------------------|
F|---------------------------------------------------------------------------|
C|------------4-------------0-------------4----------------------------------|
G|-----7---7----7----4---4----4----7---7----7-----9----4h5p4p0-5p4p0---------|
C|--0----0---------0---0--------0----0---------00---00--------------0--------|
PM       *         *   *        *    *         **   **   

D|---------------------------------------------------------------------------|
A|------------------------------------------14-------------------------------|
F|---------------------------------------------14----------------------------|
C|------------4------------0---------0/--/12------12\------------------------|
G|-----7---7----7----4---4---4~\-----0/---------------4h5p4p0-5p4p0----------|
C|--0----0---------0---0---------0-0-------------------------------0---------|
PM       *         *   *         


[Verse] 

"I'm here reaching out again..." 

D|---------------------------------------------------------------------------|
A|---------------------------------------------------------------------------|
F|---------------------------------------------------------------------------| 
C|------------4-------------0-------------4------------7-7-7-----------------|
G|-----7---7----7----4---4----4----7---7----7-----9----5-5-5-----------------|
C|--0----0---------0---0--------0----0---------00---00-4-4-4-----------------|  \
PM       *         *   *        *    *         **   **                           \
                                                                                   Play these two bars twice
D|---------------------------------------------------------------------------|   /
A|---------------------------------------------------------------------------|  /
F|---------------------------------------------------------------------------|
C|------------4-------------0-------------4------------7-7-7-----------------|
G|-----7---7----7----4---4----4----7---7----7--xx-2-xx-5-5-5-----------------|
C|--0----0---------0---0--------0----0---------xx-2-xx-4-4-4-----------------|
PM       *         *   *        *    *          


D|---------|
A|---------|
F|---------|
C|---------|
G|---------|
C|--0~~~~--|


[Chorus]

"I will send a transmission home"

D|--------------------|
A|--------------------|
F|--7---11---11---14--|
C|--5----0----0----0--| 
G|--5----9----x---12--|
C|--5----0----9---11--|(x2)


[Verse] 

"Life comes at the speed of light..." 
D|---------------------------------------------------------------------------|
A|---------------------------------------------------------------------------|
F|---------------------------------------------------------------------------| 
C|------------4-------------0-------------4------------7-7-7-----------------|
G|-----7---7----7----4---4----4----7---7----7-----9----5-5-5-----------------|
C|--0----0---------0---0--------0----0---------00---00-4-4-4-----------------|  \
PM       *         *   *        *    *         **   **                           \
                                                                                   Play these two bars twice
D|---------------------------------------------------------------------------|   /
A|---------------------------------------------------------------------------|  /
F|---------------------------------------------------------------------------|
C|------------4-------------0-------------4------------7-7-7-----------------|
G|-----7---7----7----4---4----4----7---7----7--xx-2-xx-5-5-5-----------------|
C|--0----0---------0---0--------0----0---------xx-2-xx-4-4-4-----------------|
PM       *         *   *        *    *          


D|---------|
A|---------|
F|---------|
C|---------|
G|---------|
C|--0~~~~--|


[Chorus]

"I will send a transmission home"

D|--------------------|
A|--------------------|
F|--7---11---11---14--|
C|--5----0----0----0--| 
G|--5----9----x---12--|
C|--5----0----9---11--|(x4) this time


[Bridge]

Piano plays. I will transpose it to guitar in the future.

D|---------|
A|---------|
F|---------|   Fade into the Chorus
C|---------|
G|--5~~~~--|
C|--5~~~~--|


[Outro]

D|---------------------------------------------------------------------------|
A|---------------------------------------------------------------------------|
F|---------------------------------------------------------------------------|
C|------------4-------------0-------------4----------------------------------|
G|-----7---7----7----4---4----4----7---7----7-----9----4h5p4p0-5p4p0---------|
C|--0----0---------0---0--------0----0---------00---00--------------0--------|
PM       *         *   *        *    *         **   **        
           

D|---------------------------------------------------------------------------|
A|---------------------------------------------------------------------------|
F|-------------------------------------------14------------------------------|
C|------------4------------0----------0/--xx-14-xx------7-7------------------|
G|-----7---7----7----4---4---0--------0/--xx----xx-2--5-5-5------------------|
C|--0----0---------0---0-------0--12\--------------2--4-4-4------------------|
PM       *         *   *      

D|---------------------------------------------------------------------------|
A|---------------------------------------------------------------------------|
F|---------------------------------------------------------------------------|
C|------------4-------------0-------------4----------------------------------|
G|-----7---7----7----4---4----4----7---7----7-----9----4h5p4p0-5p4p0---------|
C|--0----0---------0---0--------0----0---------00---00--------------0--------|
PM       *         *   *        *    *         **   **   

D|---------------------------------------------------------------------------|
A|------------------------------------------14-------------------------------|
F|---------------------------------------------14----------------------------|
C|------------4------------0---------0/--/12------12\------------------------|
G|-----7---7----7----4---4---4~\-----0/---------------4h5p4p0-5p4p0----------|
C|--0----0---------0---0---------0-0-------------------------------0-0-------|
PM       *         *   *


************************************

| x  Dead note
| h  Hammer-on
| p  Pull-off
| /  Slide up
| \  Slide down
| ~  Vibrato

************************************
 
 
Yellowcard - Transmission Home :: indexed at Ultimate Guitar.
Transmission Home tabs @ 911Tabs

About the artist behind Transmission Home:

Yellowcard is an alternative rock multi-platinum selling band from Jacksonville, Florida. Their music features a rare contribution to the genre, incorporating the use of a violin.

The band is not currently active and is on a self-described "indefinite hiatus."

Indexed at Wikipedia.

Show us your talent, perform Transmission Home!

Here you can post a video or audio performance. Tell me more ...
Where can we find your performance? Tell me more ...
Your comment:
Please, log in to post your performance.