Artists by letter: A B C D E F G H I J K L M N O P Q R S T U V W X Y Z 0-9

 
Transmission Home
Tabbed By: Fabio BlenderBR

 Enjoy!

                     **Drop C**
                   ( C G C F A D ) 

 - Intro:

D|----------------------------------|------------------------------------------|
A|----------------------------------|------------------------------------------|
F|----------------------------------|------------------------------------------|
C|-------------4--------------0-----|-------------4--------4-------------------|
G|---5--5---7----7-----4---4-----5--|---5--5---7----7----------4h5p4p0-4h5p4p0-|
C|---0----0----------0---0----------|---0----0----------00---0-----------------|

D|----------------------------------|--------------------------------------------|
A|----------------------------------|--------------------------------------------|
F|----------------------------------|-----------------14b------------------------|
C|-------------4--------------0-----|------------------0-------------------------|
G|---5--5---7----7-----4---4-----5--|---5--------0-----0-----0-------------------|
C|---0----0----------0---0----------|---0--/12\0-0--0-----00-0-0-4h5p4p0-4h5p4p0-|

D|----------------------------------|------------------------------------------|
A|----------------------------------|------------------------------------------|
F|----------------------------------|------------------------------------------|
C|-------------4--------------0-----|-------------4--------4-------------------|
G|---5--5---7----7-----4---4-----5--|---5--5---7----7----------4h5p4p0-4h5p4p0-|
C|---0----0----------0---0----------|---0----0----------00---0-----------------|

D|----------------------------------|------------------------------------------|
A|----------------------------------|---------/15-14---------------------------|
F|----------------------------------|-----------------14-----------------------|
C|-------------4--------------0-----|--------------------12\-------------------|
G|---5--5---7----7-----4---4-----5~-|-------5------------------4h5p4p0-4h5p4p0-|
C|---0----0----------0---0----------|---0-0-0----------------------------------|



 - Verse:

(I'm here...)

D|----------------------------------|------------------------------------------|
A|----------------------------------|------------------------------------------|
F|----------------------------------|------------------------------------------|
C|-------------4--------------0-----|-------------4--------4-------------------|
G|---5--5---7----7-----4---4-----5--|---5--5---7----7----------4h5p4p0-4h5p4p0-|      
C|---0----0----------0---0----------|---0----0----------00---0-----------------|

D|----------------------------------|------------------------------------------|
A|----------------------------------|------------------------------------------|
F|----------------------------------|------------------------------------------|
C|-------------4--------------0-----|-------------4--------4-------------------|
G|---5--5---7----7-----4---4-----5--|---5--5---7----7--------------------------|      
C|---0----0----------0---0----------|---0----0----------00---0-4h5p4p0-4h5p4p0-|
D|----------------------------------|------------------------------------------|
A|----------------------------------|------------------------------------------|
F|----------------------------------|------------------------------------------|
C|-------------4--------------0-----|-------------4--------4-------------------|
G|---5--5---7----7-----4---4-----5--|---5--5---7----7----------4h5p4p0-4h5p4p0-|      
C|---0----0----------0---0----------|---0----0----------00---0-----------------|

D|----------------------------------|------------------------------------------|
A|----------------------------------|------------------------------------------|
F|----------------------------------|------------------------------------------|
C|-------------4--------------0-----|-------------4--------4-----------0-------|
G|---5--5---7----7-----4---4-----5--|---5--5---7----7------------------0-------|      
C|---0----0----------0---0----------|---0----0----------00---0-4h5p4p0-0-------|



 - Chorus:

(I will send a transmission home...)

D|--0--0---0---0---------|
A|--0--0---0---0---------|
F|--7--11--11--14--------|
C|--5--0---0---0---------|
G|--5--9---x---x---------|    4x
C|--5--0---9---11--------|



 - Verse 2:

(Life comes...)

D|----------------------------------|------------------------------------------|
A|----------------------------------|------------------------------------------|
F|----------------------------------|------------------------------------------|
C|-------------4--------------0-----|-------------4--------4-------------------|
G|---5--5---7----7-----4---4-----5--|---5--5---7----7----------4h5p4p0-4h5p4p0-|      
C|---0----0----------0---0----------|---0----0----------00---0-----------------|

D|----------------------------------|------------------------------------------|
A|----------------------------------|------------------------------------------|
F|----------------------------------|------------------------------------------|
C|-------------4--------------0-----|-------------4--------4-------------------|
G|---5--5---7----7-----4---4-----5--|---5--5---7----7--------------------------|      
C|---0----0----------0---0----------|---0----0----------00---0-4h5p4p0-4h5p4p0-|

D|----------------------------------|------------------------------------------|
A|----------------------------------|------------------------------------------|
F|----------------------------------|------------------------------------------|
C|-------------4--------------0-----|-------------4--------4-------------------|
G|---5--5---7----7-----4---4-----5--|---5--5---7----7----------4h5p4p0-4h5p4p0-|      
C|---0----0----------0---0----------|---0----0----------00---0-----------------|

D|----------------------------------|------------------------------------------|
A|----------------------------------|------------------------------------------|
F|----------------------------------|------------------------------------------|
C|-------------4--------------0-----|-------------4--------4-----------0-------|
G|---5--5---7----7-----4---4-----5--|---5--5---7----7------------------0-------|      
C|---0----0----------0---0----------|---0----0----------00---0-4h5p4p0-0-------|



 - Chorus:

(I will send a transmission home...)

D|--0--0---0---0---------|
A|--0--0---0---0---------|
F|--7--11--11--14--------|
C|--5--0---0---0---------|
G|--5--9---x---x---------|    4x
C|--5--0---9---11--------|



 - Bridge:

D|------------------------------------------------|
A|---8-10~-------8-----------8-10~--------8-------|
F|-7---------7-6---9~----6-7----------7-6---9~----|
C|------------------------------------------------|
G|------------------------------------------------|     4x
C|------------------------------------------------|



 - Chorus:

(I will send a transmission home...)

D|--0--0---0---0---------|
A|--0--0---0---0---------|
F|--7--11--11--14--------|
C|--5--0---0---0---------|
G|--5--9---x---x---------|    4x
C|--5--0---9---11--------|



 - Intro:

D|----------------------------------|------------------------------------------|
A|----------------------------------|------------------------------------------|
F|----------------------------------|------------------------------------------|
C|-------------4--------------0-----|-------------4--------4-------------------|
G|---5--5---7----7-----4---4-----5--|---5--5---7----7----------4h5p4p0-4h5p4p0-|
C|---0----0----------0---0----------|---0----0----------00---0-----------------|

D|----------------------------------|--------------------------------------------|
A|----------------------------------|--------------------------------------------|
F|----------------------------------|-----------------14b------------------------|
C|-------------4--------------0-----|------------------0-------------------------|
G|---5--5---7----7-----4---4-----5--|---5--------0-----0-----0-------------------|
C|---0----0----------0---0----------|---0--/12\0-0--0-----00-0-0-4h5p4p0-4h5p4p0-|

D|----------------------------------|------------------------------------------|
A|----------------------------------|------------------------------------------|
F|----------------------------------|------------------------------------------|
C|-------------4--------------0-----|-------------4--------4-------------------|
G|---5--5---7----7-----4---4-----5--|---5--5---7----7----------4h5p4p0-4h5p4p0-|
C|---0----0----------0---0----------|---0----0----------00---0-----------------|

D|----------------------------------|------------------------------------------|
A|----------------------------------|---------/15-14---------------------------|
F|----------------------------------|-----------------14-----------------------|
C|-------------4--------------0-----|--------------------12\-------------------|
G|---5--5---7----7-----4---4-----5~-|-------5------------------4h5p4p0-4h5p4p0-|
C|---0----0----------0---0----------|---0-0-0----------------------------------|
 
 
Yellowcard - Transmission Home :: indexed at Ultimate Guitar.
Transmission Home tabs @ 911Tabs

About the artist behind Transmission Home:

Yellowcard is an alternative rock multi-platinum selling band from Jacksonville, Florida. Their music features a rare contribution to the genre, incorporating the use of a violin.

The band is not currently active and is on a self-described "indefinite hiatus."

Indexed at Wikipedia.

Show us your talent, perform Transmission Home!

Here you can post a video or audio performance. Tell me more ...
Where can we find your performance? Tell me more ...
Your comment:
Please, log in to post your performance.