Artists by letter: A B C D E F G H I J K L M N O P Q R S T U V W X Y Z 0-9

 
Sing For Me Acoustic
Artist: Yellowcard
Song: Sing for me(acoustic)
Tuning: standard

all 11's AND 10'S no 1's

Verse 1
e|------------------------------------------------|
B|------------------------------------------------|
G|---5-55555---2-22222-11-111111111111---5-55555--|REPEAT 3 TIMES
D|---5-55555---2-22222-11-111111111111---5-55555--|
A|------------------------------------------------|
E|------------------------------------------------|

Pre-Chorus 1
e|--------------------------------------------------------------------------|
B|--------------------------------------------------------------------------|
G|---11-111111111111---2-2222---5-5555---11-111111111111---11-111111111111--|
D|---11-111111111111---2-2222---5-5555---11-111111111111---11-111111111111--|DO NOT REPEAT THIS
A|--------------------------------------------------------------------------|
E|--------------------------------------------------------------------------|

Chorus 1
e|----------------------------------------------|
B|----------------------------------------------|
G|----------------------------------------------|
D|--------------5-555555---2-222222---5-555555--|REPEAT THAT 2 TIMES
A|---3-333333---3-333333---0-000000---3-333333--|
E|---3-333333-----------------------------------|

Verse 2
e|------------------------------------------------|
B|------------------------------------------------|
G|---5-55555---2-22222-11-111111111111---5-55555--|REPEAT 3 TIMES
D|---5-55555---2-22222-11-111111111111---5-55555--|
A|------------------------------------------------|
E|------------------------------------------------|

Pre-Chorus 2
e|--------------------------------------------------------------------------|
B|--------------------------------------------------------------------------|
G|---11-111111111111---2-2222---5-5555---11-111111111111---11-111111111111--|
D|---11-111111111111---2-2222---5-5555---11-111111111111---11-111111111111--|DO NOT REPEAT THIS
A|--------------------------------------------------------------------------|
E|--------------------------------------------------------------------------|

Chorus 2
e|----------------------------------------------|
B|----------------------------------------------|
G|----------------------------------------------|
D|--------------5-555555---2-222222---5-555555--|REPEAT THAT 2 TIMES
A|---3-333333---3-333333---0-000000---3-333333--|
E|---3-333333-----------------------------------|

Bridge
e|------------------------|
B|------------------------|
G|---2-222222---5-555555--|
D|---2-222222---5-555555--|REPEAT THAT 4 TIMES
A|---0-000000---3-333333--|
E|------------------------|

Verse 3
e|------------------------------------------|
B|------------------------------------------|
G|---5-55555---2-22222-11-111111111111---5--|
D|---5-55555---2-22222-11-111111111111---5--|DO NOT REPEAT
A|------------------------------------------|
E|------------------------------------------|

Chorus 3
e|----------------------------------------------|
B|----------------------------------------------|
G|----------------------------------------------|
D|--------------5-555555---2-222222---5-555555--|REPEAT THAT 2 TIMES
A|---3-333333---3-333333---0-000000---3-333333--|
E|---3-333333-----------------------------------|

Chorus 4
e|----------------------------------------------|
B|----------------------------------------------|
G|----------------------------------------------|
D|--------------5-555555---2-222222---5-555555--|DO NOT REPEAT
A|---3-333333---3-333333---0-000000---3-333333--|
E|---3-333333-----------------------------------|

OUTRO
e|---------------------------------------|
B|---------------------------------------|
G|---------------------------------------|
D|--------------5-555555---2-222222---5--|DO NOT REPEAT
A|---3-333333---3-333333---0-000000---3--|
E|---3-333333----------------------------|

************************************

| /   slide up
| \   slide down
| h   hammer-on
| p   pull-off
| ~   vibrato
| +   harmonic
| x   Mute note
| b   Bend
| pb  Pre-bend
| br  Bend release
| pbr Pre-bend release
| brb Bend release bend

************************************

 
 
Yellowcard - Sing For Me Acoustic :: indexed at Ultimate Guitar.
Sing For Me Acoustic tabs @ 911Tabs

About the artist behind Sing For Me Acoustic:

Yellowcard is an alternative rock multi-platinum selling band from Jacksonville, Florida. Their music features a rare contribution to the genre, incorporating the use of a violin.

The band is not currently active and is on a self-described "indefinite hiatus."

Indexed at Wikipedia.

Show us your talent, perform Sing For Me Acoustic!

Here you can post a video or audio performance. Tell me more ...
Where can we find your performance? Tell me more ...
Your comment:
Please, log in to post your performance.