Artists by letter: A B C D E F G H I J K L M N O P Q R S T U V W X Y Z 0-9

 
Shrink The World
By-Francis
Location - Carmelite, Lucena City
Cp #- 09287150674 
E-add- [email protected]  (friendster)add me!
S H C lucena

Tuning-{e b g d A D}
gUITAR3=VIOLIN
Intro Chorus-

If I could then I'd shrink the world tonight so that I would find you and me inside.

|-------------|-------------|--------------|-------------|
|-------------|-------------|--------------|-------------|
|-7-7-777777--|-7-7-777777--|--7-7-777777--|-7-7-777777--|
|-7-7-777777--|-7-7-777777--|--7-7-777777--|-7-7-777777--|
|-5-x-xxxxxx--|-5-x-xxxxxx--|--x-x-xxxxxx--|-x-x-xxxxxx--|
|---7-555555--|---7-555555--|--9-7-555555--|-9-7-555555--|

Intro Riff
Guitar 1&2

|----------------------------------------------|
|----------------------------------------------|
|----------------------------------------------|
|------9-9-5-5-0-2-2----0-0-7-7-5-5-0-2-2------|
|------9-9-5-5-0-2-2----0-0-7-7-5-5-0-2-2------|
|-9*---9-9-5-5-0-2-2----0-0-7-7-5-5-0-2-2------|

|----------------------------------------------|
|----------------------------------------------|
|----------------------------------------------|
|--0-0-5-5-4-4-0-2-2----0-0-7-7-5-5-0-2-2------|
|--0-0-5-5-4-4-0-2-2----0-0-7-7-5-5-0-2-2------|
|--0-0-5-5-4-4-0-2-2----0-0-7-7-5-5-0-2-2------|

Verse-
Guitar1 2x
|------------------------------------------------------------------------------|x
|------------------------------------------------------------------------------|x
|------------------------------------------------------------------------------|x
|-7-7-7-7-7-7-7-7-7-7-7-7-7-7-7-7-7-7-7-7-7-7-7-7-7-7-7-7-7-7-7-7-7-7-7-7-7----|x
|-5-5-5-5-5-5-5-5-5-5-5-5-5-5-5-5-5-5-5-5-5-5-5-5-5-5-5-5-5-5-5-5-5-5-5-5-5----|x
|------------------------------------------------------------------------------|x

Guitar2 2x
|--------------------------------------|---------------------------------------------|
|--------------------------------------|---------------------------------------------|
|--------------------------------------|---------------------------------------------|
|--------------------------------------|---------------------------------------------|
|-999999999-7777777-777777777--5555555-|-99999999-12-12-10-10-999-777-999-777-55555--|
|--------------------------------------|---------------------------------------------|

Pre Cho- I am missing you

Guitar1
|---------------------------------------|x
|---------------------------------------|x
|---------------------------------------|x
|---------------------------------------|x
|--7-7-7-7-7-7-7-7-7-7-7-7-7-7-7-7------|x
|--7-7-7-7-7-7-7-7-7-7-7-7-7-7-7-7------|x

Guitar2 
|-------------------------------------|
|-------------------------------------|
|-------------------------------------|
|-------------------------------------|
|--7-7-7-7-7-7-7-7-7-7-7-7-7-7-7-7----|
|--7-7-7-7-7-7-7-7-7-7-7-7-7-7-7-7----|

Chorus-
If I could then I'd shrink the world tonight so that I would find you and me inside. Of 
last good scene, a film that changes things. Breaks us, makes us sing, leaves us wondering.

Guitar1
|----------------------------------------------|
|----------------------------------------------|
|--7----------7--------------------------------|
|--7-7-5-5-5--7-7-5-5-5---9-7-5-5-5--9-7-5-5-5-|2x
|--5-7-5-5-5--5-7-5-5-5---9-7-5-5-5--9-7-5-5-5-|
|----7-5-5-5----7-5-5-5---9-7-5-5-5--9-7-5-5-5-|

Guitar2
|----------------------------------------------|
|----------------------------------------------|
|--7-7-7-7-7-7-7-7-7-7-7-7-7-7-7-7-7-7-7-7-7-7-|
|--7--7--7--7--7--7--7--7--7--7--7--7--7--7--7-|2x
|--5--5--5--5--5--5--5--5--5--5--5--5--5--5--5-|
|----------------------------------------------|



VIOLIN-CHORUS END
|-15-14------15-14------17-14-------|  -------------|
|------15-17-------15---------------|  -15-14-15~---|
|--------------------14-------------|  -------------|
|-----------------------------------|2X-------------|
|-----------------------------------|  -------------|
|-----------------------------------|  -------------|

Post Chorus

Guitar1 2x
|---------------------------------------|x
|---------------------------------------|x
|---------------------------------------|x
|-7-7-7-7-7-7-7-7-7-7-7-7-7-7-7-7-7-7---|x
|-5-5-5-5-5-5-5-5-5-5-5-5-5-5-5-5-5-5---|x
|---------------------------------------|x

Guitar2 2x
|--------------------------------------|
|--------------------------------------|
|--------------------------------------|
|--------------------------------------|
|-999999999-7777777-777777777--5555555-|
|--------------------------------------|

Guitar3

|---------------------------------|
|---------------------------------|
|---------------------------------|
|---------------------------------|
|---------------------------------|
|-4-4-4--2-2-2-2-2-2--0-0-0-------|

Verse2-
Guitar1 2x
|------------------------------------------------------------------------------|x
|------------------------------------------------------------------------------|x
|------------------------------------------------------------------------------|x
|-7-7-7-7-7-7-7-7-7-7-7-7-7-7-7-7-7-7-7-7-7-7-7-7-7-7-7-7-7-7-7-7-7-7-7-7-7----|x
|-5-5-5-5-5-5-5-5-5-5-5-5-5-5-5-5-5-5-5-5-5-5-5-5-5-5-5-5-5-5-5-5-5-5-5-5-5----|x
|------------------------------------------------------------------------------|x

Guitar2 2x
|--------------------------------------|---------------------------------------------|
|--------------------------------------|---------------------------------------------|
|--------------------------------------|---------------------------------------------|
|--------------------------------------|---------------------------------------------|
|-999999999-7777777-777777777--5555555-|-99999999-12-12-10-10-999-777-999-777-55555--|
|--------------------------------------|---------------------------------------------|

Guitar3

|----------------------------------------------------------|
|----------------------------------------------------------|
|----------------------------------------------------------|
|----------------------------------------------------------|2x
|----------------------------------------------------------|
|-4-4-4--2-2-2-2-2-2--0-0-0--4-4-4--2-2-2-2-2-2--0-0-0-----|

Pre Cho- I am missing you
|----------------------------------------------|
|----------------------------------------------|
|----------------------------------------------|
|----7~----------------------------------------|
|----7~----------------------------------------|
|----7~----------------------------------------|

Repeat Chorus-

VIOLIN-CHORUS END
|-15-14------15-14------17-14-------|  -------------|
|------15-17-------15---------------|  -15-14-12~---|
|--------------------14-------------|  -------------|
|-----------------------------------|2X-------------|
|-----------------------------------|  -------------|
|-----------------------------------|  -------------|

Solo-

Guitar1(not sure)

|----------------------------------------------|
|----------------------------------------------|
|----------------------------------------------|
|------9-9-5-5-0-2-2----0-0-7-7-5-5-0-2-2------|
|------9-9-5-5-0-2-2----0-0-7-7-5-5-0-2-2------|
|------9-9-5-5-0-2-2----0-0-7-7-5-5-0-2-2------|

|----------------------------------------------|
|----------------------------------------------|
|----------------------------------------------|
|------9-9-5-5-0-2-2----0-0-7-7-5-5-0-2-2------|
|------9-9-5-5-0-2-2----0-0-7-7-5-5-0-2-2------|
|------9-9-5-5-0-2-2----0-0-7-7-5-5-0-2-2------|

|----------------------------------------------|
|----------------------------------------------|
|----------------------------------------------|
|--0-0-5-5-4-4-0-2-2----0-0-5-5-4-4-0-2-2------|
|--0-0-5-5-4-4-0-2-2----0-0-5-5-4-4-0-2-2------|
|--0-0-5-5-4-4-0-2-2----0-0-5-5-4-4-0-2-2------|

|---------------------------------------------------------------|
|---------------------------------------------------------------|
|---------------------------------------------------------------|
|--0-0-5-5-4-4-0-2-2----0-0-7-7-5-5-0-2-2---0-0-5-5-4-4-0-2-2---|
|--0-0-5-5-4-4-0-2-2----0-0-7-7-5-5-0-2-2---0-0-5-5-4-4-0-2-2---|
|--0-0-5-5-4-4-0-2-2----0-0-7-7-5-5-0-2-2---0-0-5-5-4-4-0-2-2---|

|----------------------------------------------|
|----------------------------------------------|
|----------------------------------------------|
|--0-4-2-0-0-5-4-2-0-0-4-2-0-0-5-4-2-0~--------|
|--0-4-2-0-0-5-4-2-0-0-4-2-0-0-5-4-2-0~--------|
|--0-4-2-0-0-5-4-2-0-0-4-2-0-0-5-4-2-0~--------|

1.
Guitar2

||
|--7--10-9--12-10--14-12----------|
|---------------------------------|
|---------------------------------|
|---------------------------------|
|---------------------------------|
|---------------------------------|



2.
 ||
|--7--10-9--12-10--14-12----------|
|---------------------------------|
|---------------------------------|
|---------------------------------|
|---------------------------------|
|---------------------------------|

3.
||

|--------------10--9----|-----------|
|--7--8--7--10----------|7-8-7-9-9b-|
|-----------------------|-----------|
|-----------------------|-----------|
|-----------------------|-----------|
|-----------------------|-----------|

Guitar3

2.
                          
|-10--10--14-12--15-14--17-|
|--------------------------|
|--------------------------|
|--------------------------|
|--------------------------|
|--------------------------|

3.
           
 
 
Yellowcard - Shrink The World :: indexed at Ultimate Guitar.
Shrink The World tabs @ 911Tabs

About the artist behind Shrink The World:

Yellowcard is an alternative rock multi-platinum selling band from Jacksonville, Florida. Their music features a rare contribution to the genre, incorporating the use of a violin.

The band is not currently active and is on a self-described "indefinite hiatus."

Indexed at Wikipedia.

Show us your talent, perform Shrink The World!

Here you can post a video or audio performance. Tell me more ...
Where can we find your performance? Tell me more ...
Your comment:
Please, log in to post your performance.