Artists by letter: A B C D E F G H I J K L M N O P Q R S T U V W X Y Z 0-9

 
Lights And Sounds
Band:         Yellowcard
Song Title:   Lights And Sounds
Tabbed by:    Jose Jankunas ([email protected])

Intro:

e|-------------------------------------------------------------------|
B|-------------------------------------------------------------------|
G|-------------------------------------------------------------------|
D|-------------------------------------------------------------------|
A|--9-9-0-4-5-5-0-5-7-7-0-7-9-9-7-7-9-9-0-4-5-5-0-5-2-2-0-5-7-7-0-7--|
E|--7-7-0-2-3-3-0-3-5-5-0-5-7-7-5-5-7-7-0-2-3-3-0-3-0-0-0-3-5-5-0-5--|

(x4)

Verse 1:
e|-------------------------------
B|-------------------------------
G|-------------------------------
D|-------------------------------  (x2)
A|--9-9-7-9-9-7-5-4-5-4-5-5-5-5--
E|--7-7-5-7-7-5-3-2-3-2-3-5-5-5--

(drums start)
e|--------------------------------------------------------------|
B|--------------------------------------------------------------|
G|--------------------------------------------------------------|
D|--------------------------------------------------------------| (x2)
A|--9-9-9-9-7-7-5-5-4-5-4-5-5-5-5--9-9-7-9-9-7-5-4-5-4-5-5-5-5--|
E|--7-7-7-7-5-5-3-3-2-3-2-3-5-5-5--7-7-5-7-7-5-3-2-3-2-3-5-5-5--|

PreChorus
e|-----------------------|
B|-----------------------|
G|-----------------------|
D|--4-4---9-9-7-5--------| (X3)
A|--4-4-5-9-9-7-5--(let ring)-|
E|--2-2-5-7-7-5-3--------|

Chorus:
Guitar 1:
e|----------------------------------------------------------------|
B|----------------------------------------------------------------|
G|--777777777777777---------------444444444444444333333333333333--|
D|--777777777777777444444444444444444444444444444333333333333333--| (x2)
A|--555555555555555444444444444444222222222222222111111111111111--|
E|-----------------222222222222222--------------------------------|

Guitar 2:
e|----------------------------------------------------------------|
B|--......-..............-..............-.--.--.------------------|
G|--444422-33333333444422-33333333444422-3-93-93-333333357777777--|
D|--......---------......---------......--------------------------|
A|--222211-99999999222211-99999999222211-9-79-79-111111135555555--|
E|----------------------------------------------------------------|

(the numbers with the . above are: 1 = 10
                                   2 = 12
                                   3 = 13
                                   4 = 14)

Verse 2:
Guitar 1:
e|--------------------------------------------------------------|
B|--------------------------------------------------------------|
G|--------------------------------------------------------------|
D|--------------------------------------------------------------| (x4)
A|--9-9-9-9-7-7-5-5-4-5-4-5-5-5-5--9-9-7-9-9-7-5-4-5-4-5-5-5-5--|
E|--7-7-7-7-5-5-3-3-2-3-2-3-5-5-5--7-7-5-7-7-5-3-2-3-2-3-5-5-5--|

Guitar 2:
e|--14---------------14--15-14-14-15-14--------14----15-14------|
B|------14-15----------------------------14-15----15-------15---|
G|--------------------------------------------------------------|
D|--------------------------------------------------------------|
A|--------------------------------------------------------------|
E|--------------------------------------------------------------|

-PreChorus

-Chorus (x2)

-Bridge = (Intro x8)

-Chorus (x4)

Lyrics:

Verse 1:
Hello you, how was the rest?
You made it through
But never the less
I got you, out on a wire
you be love and I'll be a liar
tell it all and fill up the air
make it loud 'cause nobody's there

PreChorus:
(Nobody's there)

Chorus:
Stop, turn, take a look around
At all the lights and sounds
Let 'em bring you in
Slow, burn, let it all fade out
And pull the curtain down
Wonder where you been

Verse 2:
Make it new but stay in the lines
Just let go
Keep it inside
Smile big, for everyone
Even when you know what they've done
They gave you the end but not where to start
Not how to build, how to tear it apart
Tell it all and fill up the air
Make it loud 'cause nobody's there

PreChorus

Chorus

Bridge:
I've got a way to work this out
I've got a way and you know how (x a bunch of times)
I've got a way!!

Chorus +
You earned everything you found
And painted faces frown
I'll say I knew you when
 
 
Yellowcard - Lights And Sounds :: indexed at Ultimate Guitar.
Lights And Sounds tabs @ 911Tabs

About the artist behind Lights And Sounds:

Yellowcard is an alternative rock multi-platinum selling band from Jacksonville, Florida. Their music features a rare contribution to the genre, incorporating the use of a violin.

The band is not currently active and is on a self-described "indefinite hiatus."

Indexed at Wikipedia.

Show us your talent, perform Lights And Sounds!

Here you can post a video or audio performance. Tell me more ...
Where can we find your performance? Tell me more ...
Your comment:
Please, log in to post your performance.