Artists by letter: A B C D E F G H I J K L M N O P Q R S T U V W X Y Z 0-9

 
Lights And Sounds
Title " Lights and Sounds
Artist- Yellowcard
Album " Lights and Sounds

Tabbed by: Larry A

Tuning: Drop D
Guitar 1 " Distortion
Guitar 2 " Distortion

_________________
|Intro (0:00-0:22)|
|_________________|

Guitar 1
e| |---------------------------------|---------------------------------|
B| |o--------------------------------|--------------------------------o|
G| |---------------------------------|---------------------------------|
D| |-9-9-0-4-5-5-4-5-7-7-5-7-9-9-5-4-|-9-9-0-4-5-5-4-5-2-2-0-0-7-7-5-7-|
A| |o9-9-0-4-5-5-4-5-7-7-5-7-9-9-5-4-|-9-9-0-4-5-5-4-5-2-2-0-0-7-7-5-7o|
D| |-9-9-0-4-5-5-4-5-7-7-5-7-9-9-5-4-|-9-9-0-4-5-5-4-5-2-2-0-0-7-7-5-7-|
  1.
  2.

Guitar 1 & 2
e| |---------------------------------|---------------------------------|
B| |o--------------------------------|--------------------------------o|
G| |---------------------------------|---------------------------------|
D| |-9-9-0-4-5-5-4-5-7-7-5-7-9-9-5-4-|-9-9-0-4-5-5-4-5-2-2-0-0-7-7-5-7-|
A| |o9-9-0-4-5-5-4-5-7-7-5-7-9-9-5-4-|-9-9-0-4-5-5-4-5-2-2-0-0-7-7-5-7o|
D| |-9-9-0-4-5-5-4-5-7-7-5-7-9-9-5-4-|-9-9-0-4-5-5-4-5-2-2-0-0-7-7-5-7-|
  1.
  2.

_________________
|Verse (0:23-0:40)|
|_________________|

Guitar 1
e| |---------------------------------|---------------------------------|
B| |---------------------------------|---------------------------------|
G| |---------------------------------|---------------------------------|
D| |---------------------------------|---------------------------------|
A| |---------------------------------|---------------------------------|
D| |-9-9-7-9-9-7-5-5-5-5-4-4-4-2-2-0-|-9-9-7-9-9-7-5-5-5-5-4-4-4-2-2-0-|
         Hello you how was the rest        You made it through but never 
                                           the less

Guitar 1
e| |---------------------------------|---------------------------------|
B| |o--------------------------------|--------------------------------o|
G| |---------------------------------|---------------------------------|
D| |---------------------------------|---------------------------------|
A| |o--------------------------------|--------------------------------o|
D| |-9-9-9-7-7-7-5-5-5-5-4-4-4-2-2-0-|-9-9-7-9-9-7-5-5-5-5-4-4-4-2-2-0-|
  1.     I got you out on a wire           You be love and I'll be a liar
  2.     Tell it all and fill up the       But make it loud cause nobody
         air                               there

______________________
|Pre-Chorus (0:40-0:48)|
|______________________|

Guitar 1
e| |---------------------------------|---------------------------------|
B| |---------------------------------|---------------------------------|
G| |---------------------------------|---------------------------------|
D| |-4-4-0-9-9-7-5~--5-5-5-5-5-5-5-5-|-4-4-0-9-9-7-5~--5-5-5-5-5-5-5-5-|
A| |-4-4-0-9-9-7-5~--5-5-5-5-5-5-5-5-|-4-4-0-9-9-7-5~--5-5-5-5-5-5-5-5-|
D| |-4-4-0-9-9-7-5~--5-5-5-5-5-5-5-5-|-4-4-0-9-9-7-5~--5-5-5-5-5-5-5-5-|
                     And nobody's                      And nobody's
                     there                             there

Guitar 1
e| |---------------------------------|
B| |---------------------------------|
G| |---------------------------------|
D| |-4-4-0-9-9-7-5~--5-5-5-5-x-x-x-x-|
A| |-4-4-0-9-9-7-5~--5-5-5-5-x-x-x-x-|
D| |-4-4-0-9-9-7-5~--5-5-5-5-x-x-x-x-|

__________________
|Chorus (0:48-1:11)|
|__________________|

Guitar 1
e| |---------------------------------|---------------------------------|
B| |o--------------------------------|---------------------------------|
G| |---------------------------------|---------------------------------|
D| |-0-0-0-0-0-0-0-0-0-0-0-0-0-0-0-0-|-4-4-4-4-4-4-4-4-4-4-4-4-4-4-4-4-|
A| |o0-0-0-0-0-0-0-0-0-0-0-0-0-0-0-0-|-4-4-4-4-4-4-4-4-4-4-4-4-4-4-4-4-|
D| |-0-0-0-0-0-0-0-0-0-0-0-0-0-0-0-0-|-4-4-4-4-4-4-4-4-4-4-4-4-4-4-4-4-|
  1. Stop, turn, take a look           around    At all the lights and |
  2. Slow, burn, let it all fade       out            Pull the curtain |
                                                                       |
Guitar 2                                                               |
e| |---------------------------------|---------------------------------|
B| |o--------------------------------|---------------------------------|
G| |14141412121211111111111111111111-|14141412121211111111111111111111-|
D| |-x-x-x-x-x-x-x-x-x-x-x-x-x-x-x-x-|-x-x-x-x-x-x-x-x-x-x-x-x-x-x-x-x-|
A| |121212101010-9-9-9-9-9-9-9-9-9-9-|121212101010-9-9-9-9-9-9-9-9-9-9-|
D| |---------------------------------|---------------------------------|

Guitar 1
e| |---------------------------------|---------------------------------|
B| |---------------------------------|--------------------------------o|
G| |---------------------------------|---------------------------------|
D| |-9-9-9-9-9-9-9-9-9-9-9-9-9-9-9-9-|-5-5-5-5-5-5-5-5-5-5-5-5-5-5-5-5-|
A| |-9-9-9-9-9-9-9-9-9-9-9-9-9-9-9-9-|-5-5-5-5-5-5-5-5-5-5-5-5-5-5-5-5o|
D| |-9-9-9-9-9-9-9-9-9-9-9-9-9-9-9-9-|-5-5-5-5-5-5-5-5-5-5-5-5-5-5-5-5-|
  1. Sounds       Let them bring you   here                            |
  2. Down      I wonder where you've   been                            |
                                                                       |
Guitar 2                                                               |
e| |---------------------------------|---------------------------------|
B| |---------------------------------|--------------------------------o|
G| |14141412121211111111111111111111-|-3-3-3-3-3-3-3-3-3-3-5-5-5-7-7-7-|
D| |-x-x-x-x-x-x-x-x-x-x-x-x-x-x-x-x-|-x-x-x-x-x-x-x-x-x-x-x-x-x-x-x-x-|
A| |121212101010-9-9-9-9-9-9-9-9-9-9-|-1-1-1-1-1-1-1-1-1-1-3-3-3-5-5-5o|
D| |---------------------------------|---------------------------------|

_________________
|Verse (1:11-1:34)|
|_________________|

Guitar 1
e| |---------------------------------|---------------------------------|
B| |o--------------------------------|--------------------------------o|
G| |---------------------------------|---------------------------------|
D| |---------------------------------|---------------------------------|
A| |o--------------------------------|--------------------------------o|
D| |-9-9-9-7-7-7-5-5-5-5-4-4-4-2-2-0-|-9-9-7-9-9-7-5-5-5-5-4-4-4-2-2-0-|
  1.     Make it new but stay in the       Just let go but keep it inside
         lines
  2.     Smile big for everyone            Even when you know what 
                                           they've done
Guitar 1
e| |---------------------------------|---------------------------------|
B| |o--------------------------------|--------------------------------o|
G| |---------------------------------|---------------------------------|
D| |---------------------------------|---------------------------------|
A| |o--------------------------------|--------------------------------o|
D| |-9-9-9-7-7-7-5-5-5-5-4-4-4-2-2-0-|-9-9-7-9-9-7-5-5-5-5-4-4-4-2-2-0-|
  1.     They gave you the end but         Not how to build how tear   |
         not where to start                it apart                    |
  2.     So tell it all and fill up        But make it loud cause      |
         the air                           nobody cares                |
                                                                       |
Guitar 2                                                               |
e| |---------------------------------|---------------------------------|
B| |o7*------------------------------|-7*------7*---------------------o|
G| |-----7*--------------------------|-----7*5*--7*--------------------|
D| |---------7*----------------------|-------------7*------------------|
A| |o--------------------------------|--------------------------------o|
D| |---------------------------------|---------------------------------|

______________________
|Pre-Chorus (1:34-1:39)|
|______________________|

Guitar 1
e| |---------------------------------|---------------------------------|
B| |---------------------------------|---------------------------------|
G| |---------------------------------|---------------------------------|
D| |-4-4-0-9-9-7-5~--5-5-5-5-5-5-5-5-|-4-4-0-9-9-7-5~--5-5-5-5-x-x-x-x-|
A| |-4-4-0-9-9-7-5~--5-5-5-5-5-5-5-5-|-4-4-0-9-9-7-5~--5-5-5-5-x-x-x-x-|
D| |-4-4-0-9-9-7-5~--5-5-5-5-5-5-5-5-|-4-4-0-9-9-7-5~--5-5-5-5-x-x-x-x-|
                     And nobody's                      And nobody's
                     there                             there
 __________________
|Chorus (1:40-2:02)|
|__________________|

Guitar 1
e| |---------------------------------|---------------------------------|
B| |o--------------------------------|---------------------------------|
G| |---------------------------------|---------------------------------|
D| |-0-0-0-0-0-0-0-0-0-0-0-0-0-0-0-0-|-4-4-4-4-4-4-4-4-4-4-4-4-4-4-4-4-|
A| |o0-0-0-0-0-0-0-0-0-0-0-0-0-0-0-0-|-4-4-4-4-4-4-4-4-4-4-4-4-4-4-4-4-|
D| |-0-0-0-0-0-0-0-0-0-0-0-0-0-0-0-0-|-4-4-4-4-4-4-4-4-4-4-4-4-4-4-4-4-|
  1. Stop, turn, take a look           around    At all the lights and |
  2. Slow, burn, let it all fade       out            Pull the curtain |
                                                                       |
Guitar 2                                                               |
e| |---------------------------------|---------------------------------|
B| |o--------------------------------|---------------------------------|
G| |14141412121211111111111111111111-|14141412121211111111111111111111-|
D| |-x-x-x-x-x-x-x-x-x-x-x-x-x-x-x-x-|-x-x-x-x-x-x-x-x-x-x-x-x-x-x-x-x-|
A| |121212101010-9-9-9-9-9-9-9-9-9-9-|121212101010-9-9-9-9-9-9-9-9-9-9-|
D| |---------------------------------|---------------------------------|

Guitar 1
e| |---------------------------------|---------------------------------|
B| |---------------------------------|--------------------------------o|
G| |---------------------------------|---------------------------------|
D| |-9-9-9-9-9-9-9-9-9-9-9-9-9-9-9-9-|-5-5-5-5-5-5-5-5-5-5-5-5-5-5-5-5-|
A| |-9-9-9-9-9-9-9-9-9-9-9-9-9-9-9-9-|-5-5-5-5-5-5-5-5-5-5-5-5-5-5-5-5o|
D| |-9-9-9-9-9-9-9-9-9-9-9-9-9-9-9-9-|-5-5-5-5-5-5-5-5-5-5-5-5-5-5-5-5-|
  1. Sounds       Let them bring you   here                            |
  2. Down      I wonder where you've   been                            |
                                                                       |
Guitar 2                                                               |
e| |---------------------------------|---------------------------------|
B| |---------------------------------|--------------------------------o|
G| |14141412121211111111111111111111-|-3-3-3-3-3-3-3-3-3-3-5-5-5-7-7-7-|
D| |-x-x-x-x-x-x-x-x-x-x-x-x-x-x-x-x-|-x-x-x-x-x-x-x-x-x-x-x-x-x-x-x-x-|
A| |121212101010-9-9-9-9-9-9-9-9-9-9-|-1-1-1-1-1-1-1-1-1-1-3-3-3-5-5-5o|
D| |---------------------------------|---------------------------------|

__________________
|Bridge (2:03-2:48)|
|__________________|

Guitar 1
e| |---------------------------------|---------------------------------|
B| |o--------------------------------|--------------------------------o|
G| |---------------------------------|---------------------------------|
D| |-9-9-0-4-5-5-4-5-7-7-5-7-9-9-5-4-|-9-9-0-4-5-5-4-5-2-2-0-0-7-7-5-7-|
A| |o9-9-0-4-5-5-4-5-7-7-5-7-9-9-5-4-|-9-9-0-4-5-5-4-5-2-2-0-0-7-7-5-7o|
D| |-9-9-0-4-5-5-4-5-7-7-5-7-9-9-5-4-|-9-9-0-4-5-5-4-5-2-2-0-0-7-7-5-7-|
  1.
  2.     I've got a way to work this       I've got a way and you know
         out                               how

Guitar 1
e| |---------------------------------|---------------------------------|
B| |---------------------------------|---------------------------------|
G| |---------------------------------|---------------------------------|
D| |-9-9-0-4-5-5-4-5-7-7-5-7-9-9-5-4-|-9-9-0-4-5-5-4-5-2-2-0-0-7-7-5-7-|
A| |-9-9-0-4-5-5-4-5-7-7-5-7-9-9-5-4-|-9-9-0-4-5-5-4-5-2-2-0-0-7-7-5-7-|
D| |-9-9-0-4-5-5-4-5-7-7-5-7-9-9-5-4-|-9-9-0-4-5-5-4-5-2-2-0-0-7-7-5-7-|
         I've got a way to work this       I've got a way and you know
         out                               how

Guitar 1
e| |---------------------------------|---------------------------------|
B| |o--------------------------------|--------------------------------o|
G| |---------------------------------|---------------------------------|
D| |-9-9-0-4-5-5-4-5-7-7-5-7-9-9-5-4-|-9-9-0-4-5-5-4-5-2-2-0-0-7-7-5-7-|
A| |o9-9-0-4-5-5-4-5-7-7-5-7-9-9-5-4-|-9-9-0-4-5-5-4-5-2-2-0-0-7-7-5-7o|
D| |-9-9-0-4-5-5-4-5-7-7-5-7-9-9-5-4-|-9-9-0-4-5-5-4-5-2-2-0-0-7-7-5-7-|
  1.     I've got a way to work this       I've got a way...
         out
  2.     I've got a way to work this       I've got a way and you know
         out                               how
  3.     I've got a way to work this       I've got a way...
         out
  4.     I've got a way to work this       I've got a way and you know
         out                               how

Guitar 1
e| |---------------------------------|---------------------------------|
B| |---------------------------------|---------------------------------|
G| |---------------------------------|---------------------------------|
D| |-9-9-0-4-5-5-4-5-7-7-5-7-9-9-5-4-|-9\------------------------------|
A| |-9-9-0-4-5-5-4-5-7-7-5-7-9-9-5-4-|-9\------------------------------|
D| |-9-9-0-4-5-5-4-5-7-7-5-7-9-9-5-4-|-9\------------------------------|
         I've got a way to work this       I've got a way...
         out

__________________
|Chorus (2:48-3:11)|
|__________________|

Guitar 1
e| |---------------------------------|---------------------------------|
B| |o--------------------------------|---------------------------------|
G| |---------------------------------|---------------------------------|
D| |-0-0-0-0-0-0-0-0-0-0-0-0-0-0-0-0-|-4-4-4-4-4-4-4-4-4-4-4-4-4-4-4-4-|
A| |o0-0-0-0-0-0-0-0-0-0-0-0-0-0-0-0-|-4-4-4-4-4-4-4-4-4-4-4-4-4-4-4-4-|
D| |-0-0-0-0-0-0-0-0-0-0-0-0-0-0-0-0-|-4-4-4-4-4-4-4-4-4-4-4-4-4-4-4-4-|
  1. Stop, turn, take a look           around    At all the lights and |
  2. Slow, burn, let it all fade       out            Pull the curtain |
                                                                       |
Guitar 2                                                               |
e| |---------------------------------|---------------------------------|
B| |o--------------------------------|---------------------------------|
G| |14141412121211111111111111111111-|14141412121211111111111111111111-|
D| |-x-x-x-x-x-x-x-x-x-x-x-x-x-x-x-x-|-x-x-x-x-x-x-x-x-x-x-x-x-x-x-x-x-|
A| |121212101010-9-9-9-9-9-9-9-9-9-9-|121212101010-9-9-9-9-9-9-9-9-9-9-|
D| |---------------------------------|---------------------------------|

Guitar 1
e| |---------------------------------|---------------------------------|
B| |---------------------------------|--------------------------------o|
G| |---------------------------------|---------------------------------|
D| |-9-9-9-9-9-9-9-9-9-9-9-9-9-9-9-9-|-5-5-5-5-5-5-5-5-5-5-5-5-5-5-5-5-|
A| |-9-9-9-9-9-9-9-9-9-9-9-9-9-9-9-9-|-5-5-5-5-5-5-5-5-5-5-5-5-5-5-5-5o|
D| |-9-9-9-9-9-9-9-9-9-9-9-9-9-9-9-9-|-5-5-5-5-5-5-5-5-5-5-5-5-5-5-5-5-|
  1. Sounds       Let them bring you   here                            |
  2. Down      I wonder where you've   been                            |
                                                                       |
Guitar 2                                                               |
e| |---------------------------------|---------------------------------|
B| |---------------------------------|--------------------------------o|
G| |14141412121211111111111111111111-|-3-3-3-3-3-3-3-3-3-3-5-5-5-7-7-7-|
D| |-x-x-x-x-x-x-x-x-x-x-x-x-x-x-x-x-|-x-x-x-x-x-x-x-x-x-x-x-x-x-x-x-x-|
A| |121212101010-9-9-9-9-9-9-9-9-9-9-|-1-1-1-1-1-1-1-1-1-1-3-3-3-5-5-5o|
D| |---------------------------------|---------------------------------|

_________________
|Outro (3:11-3:28)|
|_________________|

Guitar 1
e| |---------------------------------|---------------------------------|
B| |---------------------------------|---------------------------------|
G| |---------------------------------|---------------------------------|
D| |-0-0-0-0-0-0-0-0-0-0-0-0-0-0-0-0-|-4-4-4-4-4-4-4-4-4-4-4-4-4-4-4-4-|
A| |-0-0-0-0-0-0-0-0-0-0-0-0-0-0-0-0-|-4-4-4-4-4-4-4-4-4-4-4-4-4-4-4-4-|
D| |-0-0-0-0-0-0-0-0-0-0-0-0-0-0-0-0-|-4-4-4-4-4-4-4-4-4-4-4-4-4-4-4-4-|
     You earned everything you         found         And painted faces |
                                                                       |
Guitar 2                                                               |
e| |---------------------------------|---------------------------------|
B| |---------------------------------|---------------------------------|
G| |14141412121211111111111111111111-|14141412121211111111111111111111-|
D| |-x-x-x-x-x-x-x-x-x-x-x-x-x-x-x-x-|-x-x-x-x-x-x-x-x-x-x-x-x-x-x-x-x-|
A| |121212101010-9-9-9-9-9-9-9-9-9-9-|121212101010-9-9-9-9-9-9-9-9-9-9-|
D| |---------------------------------|---------------------------------|

Guitar 1
e| |---------------------------------|---------------------------------|
B| |---------------------------------|---------------------------------|
G| |---------------------------------|---------------------------------|
D| |-9-9-9-9-9-9-9-9-9-9-9-9-9-9-9-9-|-5-5-5-5-5-5-5-5-5-5-5-5-5-5-5-5-|
A| |-9-9-9-9-9-9-9-9-9-9-9-9-9-9-9-9-|-5-5-5-5-5-5-5-5-5-5-5-5-5-5-5-5-|
D| |-9-9-9-9-9-9-9-9-9-9-9-9-9-9-9-9-|-5-5-5-5-5-5-5-5-5-5-5-5-5-5-5-5-|
     Frown    I'll say I knew you      when...                         |
                                                                       |
Guitar 2                                                               |
e| |---------------------------------|---------------------------------|
B| |---------------------------------|--------------------------------o|
G| |14141412121211111111111111111111-|-3-3-3-3-3-3-3-3-3-3-5-5-5-7-7-7-|
D| |-x-x-x-x-x-x-x-x-x-x-x-x-x-x-x-x-|-x-x-x-x-x-x-x-x-x-x-x-x-x-x-x-x-|
A| |121212101010-9-9-9-9-9-9-9-9-9-9-|-1-1-1-1-1-1-1-1-1-1-3-3-3-5-5-5o|
D| |---------------------------------|---------------------------------|

Guitar 1
e| |---------------------------------|---------------------------------|
B| |---------------------------------|---------------------------------|
G| |---------------------------------|---------------------------------|
D| |-5\------------------------------|---------------------------------|
A| |-5\------------------------------|---------------------------------|
D| |-5\------------------------------|---------------------------------|
                                                                       |
Guitar 2                                                               |
e| |---------------------------------|---------------------------------|
B| |---------------------------------|---------------------------------|
G| |-7\------------------------------|---------------------------------|
D| |-x-------------------------------|---------------------------------|
A| |-5\------------------------------|---------------------------------|
D| |---------------------------------|---------------------------------|



________
| Legend |
|________|

~  - Sustain
\  - Slide down
x  - Mute
7* - Harmonics
 _______
| Notes |
|_______|

UPDATE- I now added the harmonic part and time codes but now I'll try to finish the bridge.
 
 
Yellowcard - Lights And Sounds :: indexed at Ultimate Guitar.
Lights And Sounds tabs @ 911Tabs

About the artist behind Lights And Sounds:

Yellowcard is an alternative rock multi-platinum selling band from Jacksonville, Florida. Their music features a rare contribution to the genre, incorporating the use of a violin.

The band is not currently active and is on a self-described "indefinite hiatus."

Indexed at Wikipedia.

Show us your talent, perform Lights And Sounds!

Here you can post a video or audio performance. Tell me more ...
Where can we find your performance? Tell me more ...
Your comment:
Please, log in to post your performance.